PrimaNota.ru - самый крупный в мире бесплатный архив песенных текстов, аккордов, табулатур и нот


Ben Gibbard - When The Sun Goes Down On Your Street - таба, видео

Регистрация Запомнить меня
Войти через:  Facebook Google Twitter Vk Yandex Mail.ru

Ben Gibbard - When The Sun Goes Down On Your Street - таба, видео

Печатать
Просмотров: 23
This is essentially stolen from Tyler_182's tab with lyrics and formatted differently... 

Im sure its not 100% correct... but it works. Please comment/correct it!

*Capo 2* 

Intro x2
e|----2-----2-----0-----0-----0-----0------0-----0---------------|
B|----3-----3-----3-----3-----3-----3------3-----3---------------|
G|----2-----2-----2-----2-----0-----0------0-----0---------------|
D|--0-----0-----0-----0------------------------------------------|
A|------------------------0h2-----2----0h2-----0-----------------|
E|---------------------------------------------------------------|

e|----2-----2-----0-----0-----0-----0------0-----0---------------|
B|----3-----3-----3-----3-----3-----3------3-----3---------------|
G|----2-----2-----2-----2-----0-----0------0-----0---------------|
D|--0-----0-----0-----0------------------------------------------|
A|------------------------0h2-----2----0h2-----------------------|
E|-------------------------------------------0h2-----------------|




e|----2-----2-----0-----0-----0-----0------0-----0---------------|
B|----3-----3-----3-----3-----3-----3------3-----3---------------|
G|----2-----2-----2-----2-----0-----0------0-----0---------------|
D|--0-----0-----0-----0------------------------------------------|
A|------------------------0h2-----2----0h2-----0-----------------|
E|---------------------------------------------------------------|
                                                  When the 
e|----2-----2-----0-----0-----0-----0------0-----0---------------|
B|----3-----3-----3-----3-----3-----3------3-----3---------------|
G|----2-----2-----2-----2-----0-----0------0-----0---------------|
D|--0-----0-----0-----0------------------------------------------|
A|------------------------0h2-----2----0h2-----------------------|
E|-------------------------------------------0h2-----------------|

Verses: 

   sun goes down,        down on your street     Oh,
e|----2-----2-----0-----0-----0-----0------0-----0---------------| 
B|----3-----3-----3-----3-----3-----3------3-----3---------------| 
G|----2-----2-----2-----2-----0-----0------0-----0---------------| 
D|--0-----0-----0-----0------------------------------------------| 
A|------------------------0h2-----2----0h2-----0-----------------| 
E|---------------------------------------------------------------| 
                                                                    
   let me be the           one you meet               
e|----2-----2-----0-----0-----0-----0------0-----0---------------| 
B|----3-----3-----3-----3-----3-----3------3-----3---------------| 
G|----2-----2-----2-----2-----0-----0------0-----0---------------| 
D|--0-----0-----0-----0------------------------------------------|
A|------------------------0h2-----2----0h2-----------------------| 
E|-------------------------------------------0h2-----------------| 
  
  In the lamplight hung 
e|----2-----2-----0-----0---|
B|----3-----3-----3-----3---|
G|----2-----2-----2-----2---|
D|--0-----0-----0-----0-----|
A|--------------------------|
E|--------------------------|

when the night has just 
e|----0-----0------0-----0--|
B|----3-----3------3-----3--|
G|----4-----4------4-----4--|
D|----4-----4------4-----4--|
A|--2-----2------0-----0----|
E|--------------------------|

begun
e|----0-----0-----0-----0-----0-----0-----0-----0---|
B|----3-----3-----3-----3-----3-----3-----3-----3---|
G|----4-----4-----4-----4-----4-----4-----4-----4---|
D|----4-----4-----4-----4-----4-----4-----4-----4---|
A|--------------------------------0-----2-----------|
E|--3-----3-----3-----3-----3-----------------0-----|
   
And though you fear where shadows fall
                                        
There's nothing there to harm you at all     
   
Uncover your eyes, presume uncertain skies 


 Chorus: 
   
And rise, arise 
e|----0----|
B|----0----|
G|----0----| x8
D|----2----|
A|----2----|
E|--0------|
 
 Step into the night
B|----3-----3------3-----3--|
G|----4-----4------4-----4--|
D|----4-----4------4-----4--|
A|--2-----2------0-----0----|
E|--------------------------|
                   
 it'll be alright
e|----0-----0-----0-----0-----0-----0-----0-----0---|
B|----3-----3-----3-----3-----3-----3-----3-----3---|
G|----4-----4-----4-----4-----4-----4-----4-----4---|
D|----4-----4-----4-----4-----4-----4-----4-----4---|
A|--------------------------------0-----2-----------|
E|--3-----3-----3-----3-----3-----------------0-----|

                     
When the sun goes down, down on your street
And you're feeling strangely incomplete                    
Oh, please don't grieve for days that fell like leaves
     
       
Under a moon that hangs from silver strings
We know not what this darkness brings 
The stars all gleam with possibilities

And rise, arise 
Step into the night, it'll be alright

When the sun goes down, down on your street
Oh, let me be the one you meet
For I've waited years for you to return to me

So rise, arise
Step into the night 
Yes rise, arise
And step into the night 
Rise, arise
And step into the night, it'll be alright
Добавлено: 17.04.2016
Другие материалы по этой песне:
  • Аккорды и текст

Страница создана 17.04.2016
http://primanota.ru/ben-gibbard/when-sun-goes-down-on-your-street-chords.htm
Привет, Гость.
Предлагаем пройти революционный курс по гитаре.
Подарок от PrimaNota.Ru, забирай!