PrimaNota.ru - самый крупный в мире бесплатный архив песенных текстов, аккордов, табулатур и нот


Ben Gibbard - Underwater - таба, видео

Регистрация Запомнить меня
Войти через:  Facebook Google Twitter Vk Yandex Mail.ru

Ben Gibbard - Underwater - таба, видео

Печатать
Просмотров: 146
-------------------------------------------------------------------------------
                            UNDERWATER – Ben Gibbard
-------------------------------------------------------------------------------

Artist: Ben Gibbard
Song: Underwater
Album: All-Time Quarterback (2002)
Tabbed by: Pat Malavi (pat.malavi@gmail.com)

Tuning: Standard (slightly sharp), Capo 5th fret

Verse 1:

e|---------------------------------------------------------------------------|
B|---------------------------------------------------------------------------|
G|---2-------2-------4-------4-----------------------------------------------|
D|-----------------------------------2-------2-------0-------0---------------|
A|-------3-------3-------3-------3-------3-------3-------3-------3-----------|
E|---------------------------------------------------------------------------|

                     You were my     army        and I would command

e|---------------------------------------------------------------------------|
B|---------------------------------------------------------------------------|
G|---2-------2-------4-------4-----------------------------------------------|
D|-----------------------------------2-------2-------0-------0---------------|
A|-------3-------3-------3-------3-------3-------3-------3-------3-----------|
E|---------------------------------------------------------------------------|

                 “Attack the        holy             land”

e|---------------------------------------------------------------------------|
B|---------------------------------------------------------------------------|
G|---2-------2-------4-------4-----------------------------------------------|
D|-----------------------------------2-------2-------0-------0---------------|
A|-------3-------3-------3-------3-------3-------3-------3-------3-----------|
E|---------------------------------------------------------------------------|

                 And you were that   inter-          -state

e|---------------------------------------------------------------------------|
B|---------------------------------------------------------------------------|
G|---2-------2-------4-------0-----------------------------------------------|
D|-----------------------------------2-------2-------0-------0---------------|
A|-------3-------3-------3-------3-------3-------3-------3-------3-----------|
E|---------------------------------------------------------------------------|

                 That I would        roll my         tanks down
 
Chorus:

e|---------------------------------------------------------------------------|
B|---------------------------------------------------------------------------|
G|---------------------------------------------------------------------------|
D|---3--3--3--3--5--5--5--5--2--2--2--2--0--0--0--0--------------------------|
A|---3--3--3--3--3--3--3--3--3--3--3--3--3--3--3--3--------------------------|
E|---------------------------------------------------------------------------|

              Uncover me     stunned 

e|---------------------------------------------------------------------------|
B|---------------------------------------------------------------------------|
G|---------------------------------------------------------------------------|
D|---3--3--3--3--5--5--5--5--2--2--2--2--0--0--0--0--------------------------|
A|---3--3--3--3--3--3--3--3--3--3--3--3--3--3--3--3--------------------------|
E|---------------------------------------------------------------------------|

              And wake the   children when done

e|---------------------------------------------------------------------------|
B|---------------------------------------------------------------------------|
G|---------------------------------------------------------------------------|
D|---3--3--3--3--5--5--5--5--2--2--2--2--0--0--0--0--------------------------|
A|---3--3--3--3--3--3--3--3--3--3--3--3--3--3--3--3--------------------------|
E|---------------------------------------------------------------------------|

              And keep the   details in a jar 

e|---------------------------------------------------------------------------|
B|---------------------------------------------------------------------------|
G|---------------------------------------------------------------------------|
D|---3--3--3--3--5--5--5--5--2--2--2--2--0--0--0-----------------------------|
A|---3--3--3--3--3--3--3--3--3--3--3--3--3--3--3--3--------------------------|
E|---------------------------------------------------------------------------|

              And bury them  underwater

Verse 2:

e|---------------------------------------------------------------------------|
B|---------------------------------------------------------------------------|
G|---2-------2-------4-------4-----------------------------------------------|
D|-----------------------------------2-------2-------0-------0---------------|
A|-------3-------3-------3-------3-------3-------3-------3-------3-----------|
E|---------------------------------------------------------------------------|

                 I went to see this   

e|---------------------------------------------------------------------------|
B|---------------------------------------------------------------------------|
G|---2-------2-------4-------4-----------------------------------------------|
D|-----------------------------------2-------2-------0-------0---------------|
A|-------3-------3-------3-------3-------3-------3-------3-------3-----------|
E|---------------------------------------------------------------------------|

                      Battleground and battle sound

e|---------------------------------------------------------------------------|
B|---------------------------------------------------------------------------|
G|---2-------2-------4-------4-----------------------------------------------|
D|-----------------------------------2-------2-------0-------0---------------|
A|-------3-------3-------3-------3-------3-------3-------3-------3-----------|
E|---------------------------------------------------------------------------|

                 And drove to the outskirts

e|---------------------------------------------------------------------------|
B|---------------------------------------------------------------------------|
G|---2-------2-------4-------4-----------------------------------------------|
D|-----------------------------------2-------2-------0-------0---------------|
A|-------3-------3-------3-------3-------3-------3-------3-------3-----------|
E|---------------------------------------------------------------------------|

                 With cars on blocks and houses run down

~ Repeat Chorus ~

Outro:

(3x)
e|---------------------------------------------------------------------------|
B|---------------------------------------------------------------------------|
G|---2-------2-------4-------4-----------------------------------------------|
D|-----------------------------------2-------2-------0-------0---------------|
A|-------3-------3-------3-------3-------3-------3-------3-------3-----------|
E|---------------------------------------------------------------------------|

e|---------------------------------------------------------------------------|
B|---------------------------------------------------------------------------|
G|---2-------2-------4-------4-------2---------------------------------------|
D|-----------------------------------x---------------------------------------|
A|-------3-------3-------3-------3---3---------------------------------------|
E|---------------------------------------------------------------------------|
Добавлено: 14.05.2012
Другие материалы по этой песне:
  • Аккорды и текст

Страница создана 14.05.2012
http://primanota.ru/ben-gibbard/underwater-chords.htm
Привет, Гость.
Предлагаем пройти революционный курс по гитаре.
Подарок от PrimaNota.Ru, забирай!