PrimaNota.ru - самый крупный в мире бесплатный архив песенных текстов, аккордов, табулатур и нот


Belzébuth - Cul-De-Sac - таба, видео

Регистрация Запомнить меня
Войти через:  Facebook Google Twitter Vk Yandex Mail.ru

Belzébuth - Cul-De-Sac - таба, видео

Печатать
Просмотров: 94
Уроки эстрадного вокала в Санкт-Петербурге
-------------------------------------------------------------------------------
                             CUL-DE-SAC - Belzébuth
-------------------------------------------------------------------------------
Tabbed by: lungcapacity
E-mail: maur.as@live.com

PS.: This is the tab for playing the fiddle part on the guitar, NOT the guitar part itself.

Tuning: Standard

e|--0-3-2-------0-3-2-------0-3-2---------------0-0-3-2-0---0-7-0-7-0-3-3----|
B|0-------3-0-0-------3-0-0-------3-0-0-------0-----------3------------------|
G|--------------------------------------2-2-0---2----------------------------|
D|--------------------------------------------0------------------------------|
A|---------------------------------------------------------------------------|
E|---------------------------------------------------------------------------|

e|2-3-2-3-5-5-5-5-3-2---3-2--------------------------------------------------|
B|--------------------3-----3------------------------------------------------|
G|---------------------------------------------------------------------------|
D|---------------------------------------------------------------------------|
A|---------------------------------------------------------------------------|
E|---------------------------------------------------------------------------|

e|-0-0-3-2-0---0-7-0-7-0-3-3-2-3-2-3-5-5-5-7-5-3-2-3-2-----------------------|
B|-----------3-----------------------------------------3---------------------|
G|---------------------------------------------------------------------------|
D|---------------------------------------------------------------------------|
A|---------------------------------------------------------------------------|
E|---------------------------------------------------------------------------|

e|-0-0-3-2-0---0-7-0-7-0-3-3-2-3-2-3-5-5-5-5-3-2---3-2-----------------------|
B|-----------3-----------------------------------3-----3---------------------|
G|---------------------------------------------------------------------------|
D|---------------------------------------------------------------------------|
A|---------------------------------------------------------------------------|
E|---------------------------------------------------------------------------|

e|-0-0-3-2-0---0-7-0-7-0-3-3-2-3-2-3-5-5-5-7-5-3-2-3-2-----------------------|
B|-----------3-----------------------------------------3---------------------|
G|---------------------------------------------------------------------------|
D|---------------------------------------------------------------------------|
A|---------------------------------------------------------------------------|
E|---------------------------------------------------------------------------|

e|-0-0-3-2-0---0-2-0-3-0-2-0---2-0-0-3-2-0---0-5-0-3-0-2-0---2---------------|
B|-----------3---------------3-------------3---------------3-----------------|
G|---------------------------------------------------------------------------|
D|---------------------------------------------------------------------------|
A|---------------------------------------------------------------------------|
E|---------------------------------------------------------------------------|

e|-0-0-3-2-0---0-2-0-3-0-2-0---5-7-5-3-2-3-2---5-7-5-3-2-3-2-----------------|
B|-----------3---------------3---------------3---------------3---------------|
G|---------------------------------------------------------------------------|
D|---------------------------------------------------------------------------|
A|---------------------------------------------------------------------------|
E|---------------------------------------------------------------------------|

e|-0-0-3-2-0---0-2-0-3-0-2-0---2-0-0-3-2-0---0-5-0-3-0-2-0---2---------------|
B|-----------3---------------3-------------3---------------3-----------------|
G|---------------------------------------------------------------------------|
D|---------------------------------------------------------------------------|
A|---------------------------------------------------------------------------|
E|---------------------------------------------------------------------------|

e|-0-0-3-2-0---0-2-0-3-0-2-0---5-7-5-3-2-3-2---5-7-5-3-2-3-2-----------------|
B|-----------3---------------3---------------3---------------3---------------|
G|---------------------------------------------------------------------------|
D|---------------------------------------------------------------------------|
A|---------------------------------------------------------------------------|
E|---------------------------------------------------------------------------|

e|-0-0-3-2-0---0-7-0-7-0-3-3-2-3-2-3-5-5-5-5-3-2---3-2-----------------------|
B|-----------3-----------------------------------3-----3---------------------|
G|---------------------------------------------------------------------------|
D|---------------------------------------------------------------------------|
A|---------------------------------------------------------------------------|
E|---------------------------------------------------------------------------|

e|-0-0-3-2-0---0-7-0-7-0-3-3-2-3-2-3-5-5-5-7-5-3-2-3-2-----------------------|
B|-----------3-----------------------------------------3---------------------|
G|---------------------------------------------------------------------------|
D|---------------------------------------------------------------------------|
A|---------------------------------------------------------------------------|
E|---------------------------------------------------------------------------|

e|-0-0-3-2-0---0-7-0-7-0-3-3-2-3-2-3-5-5-5-5-3-2---3-2-----------------------|
B|-----------3-----------------------------------3-----3---------------------|
G|---------------------------------------------------------------------------|
D|---------------------------------------------------------------------------|
A|---------------------------------------------------------------------------|
E|---------------------------------------------------------------------------|

e|-0-0-3-2-0---0-7-0-7-0-3-3-2-3-2-3-5-5-5-7-5-3-2-3-2-----------------------|
B|-----------3-----------------------------------------3---------------------|
G|---------------------------------------------------------------------------|
D|---------------------------------------------------------------------------|
A|---------------------------------------------------------------------------|
E|---------------------------------------------------------------------------|

e|-0-0-3-2-0---0-2-0-3-0-2-0---2-0-0-3-2-0---0-5-0-3-0-2-0---2---------------|
B|-----------3---------------3-------------3---------------3-----------------|
G|---------------------------------------------------------------------------|
D|---------------------------------------------------------------------------|
A|---------------------------------------------------------------------------|
E|---------------------------------------------------------------------------|

e|-0-0-3-2-0---0-2-0-3-0-2-0---5-7-5-3-2-3-2---5-7-5-3-2-3-2-----------------|
B|-----------3---------------3---------------3---------------3---------------|
G|---------------------------------------------------------------------------|
D|---------------------------------------------------------------------------|
A|---------------------------------------------------------------------------|
E|---------------------------------------------------------------------------|

e|-0-0-3-2-0---0-2-0-3-0-2-0---2-0-0-3-2-0---0-5-0-3-0-2-0---2---------------|
B|-----------3---------------3-------------3---------------3-----------------|
G|---------------------------------------------------------------------------|
D|---------------------------------------------------------------------------|
A|---------------------------------------------------------------------------|
E|---------------------------------------------------------------------------|

e|-0-0-3-2-0---0-2-0-3-0-2-0---5-7-5-3-2-3-2---5-7-5-3-2-3-2-----------------|
B|-----------3---------------3---------------3---------------3---------------|
G|---------------------------------------------------------------------------|
D|---------------------------------------------------------------------------|
A|---------------------------------------------------------------------------|
E|---------------------------------------------------------------------------|

(repeat everything below twice, and then the next line three more times)

(repeat this line below three times)

e|-0-0-3-2-0---0-2-2-3-2-0--0-2-2-3-2-0---0-5-0-3-0-2-0---2------------------|
B|-----------3-------------3------------3---------------3--------------------|
G|---------------------------------------------------------------------------|
D|---------------------------------------------------------------------------|
A|---------------------------------------------------------------------------|
E|---------------------------------------------------------------------------|

e|-0-0-3-2-0---0-2-0-3-0-2-0---2-0-0-3-2-0---0-5-0-3-0-2-0---2---------------|
B|-----------3---------------3-------------3---------------3-----------------|
G|---------------------------------------------------------------------------|
D|---------------------------------------------------------------------------|
A|---------------------------------------------------------------------------|
E|---------------------------------------------------------------------------|

e|-0-0-3-2-0---0-2-0-3-0-2-0---5-7-5-3-2-3-2---5-7-5-3-2-3-2-----------------|
B|-----------3---------------3---------------3---------------3---------------|
G|---------------------------------------------------------------------------|
D|---------------------------------------------------------------------------|
A|---------------------------------------------------------------------------|
E|---------------------------------------------------------------------------|

e|-0-0-3-2-0---0-2-0-3-0-2-0---2-0-0-3-2-0---0-5-0-3-0-2-0---2---------------|
B|-----------3---------------3-------------3---------------3-----------------|
G|---------------------------------------------------------------------------|
D|---------------------------------------------------------------------------|
A|---------------------------------------------------------------------------|
E|---------------------------------------------------------------------------|

e|-0-0-3-2-0---0-2-0-3-0-2-0---5-7-5-3-2-3-2---5-7-5-3-2-3-2-----------------|
B|-----------3---------------3---------------3---------------3---------------|
G|---------------------------------------------------------------------------|
D|---------------------------------------------------------------------------|
A|---------------------------------------------------------------------------|
E|---------------------------------------------------------------------------|

e|-0-0-3-2-0---0-7-0-7-0-3-3-2-3-2-3-5-5-5-5-3-2---3-2-----------------------|
B|-----------3-----------------------------------3-----3---------------------|
G|---------------------------------------------------------------------------|
D|---------------------------------------------------------------------------|
A|---------------------------------------------------------------------------|
E|---------------------------------------------------------------------------|

e|-0-0-3-2-0---0-7-0-7-0-3-3-2-3-2-3-5-5-5-7-5-3-2-3-2-----------------------|
B|-----------3-----------------------------------------3---------------------|
G|---------------------------------------------------------------------------|
D|---------------------------------------------------------------------------|
A|---------------------------------------------------------------------------|
E|---------------------------------------------------------------------------|

e|-0-0-3-2-0---0-7-0-7-0-3-3-2-3-2-3-5-5-5-5-3-2---3-2-----------------------|
B|-----------3-----------------------------------3-----3---------------------|
G|---------------------------------------------------------------------------|
D|---------------------------------------------------------------------------|
A|---------------------------------------------------------------------------|
E|---------------------------------------------------------------------------|

e|-0-0-3-2-0---0-7-0-7-0-3-3-2-3-2-3-5-5-5-7-5-3-2-3-2-----------------------|
B|-----------3-----------------------------------------3---------------------|
G|---------------------------------------------------------------------------|
D|---------------------------------------------------------------------------|
A|---------------------------------------------------------------------------|
E|---------------------------------------------------------------------------|

e|-0-0-3-2-0---0-2-0-3-0-2-0---2-0-0-3-2-0---0-5-0-3-0-2-0---2---------------|
B|-----------3---------------3-------------3---------------3-----------------|
G|---------------------------------------------------------------------------|
D|---------------------------------------------------------------------------|
A|---------------------------------------------------------------------------|
E|---------------------------------------------------------------------------|

e|-0-0-3-2-0---0-2-0-3-0-2-0---5-7-5-3-2-3-2---5-7-5-3-2-3-2-----------------|
B|-----------3---------------3---------------3---------------3---------------|
G|---------------------------------------------------------------------------|
D|---------------------------------------------------------------------------|
A|---------------------------------------------------------------------------|
E|---------------------------------------------------------------------------|

e|-0-0-3-2-0---0-2-0-3-0-2-0---2-0-0-3-2-0---0-5-0-3-0-2-0---2---------------|
B|-----------3---------------3-------------3---------------3-----------------|
G|---------------------------------------------------------------------------|
D|---------------------------------------------------------------------------|
A|---------------------------------------------------------------------------|
E|---------------------------------------------------------------------------|

e|-0-0-3-2-0---0-2-0-3-0-2-0---5-7-5-3-2-3-2---5-7-5-3-2-3-2-----------------|
B|-----------3---------------3---------------3---------------3---------------|
G|---------------------------------------------------------------------------|
D|---------------------------------------------------------------------------|
A|---------------------------------------------------------------------------|
E|---------------------------------------------------------------------------|

(ending)

e|-0-0-0-----0---------------------------------------------------------------|
B|-------3-0-----------------------------------------------------------------|
G|---------------------------------------------------------------------------|
D|---------------------------------------------------------------------------|
A|---------------------------------------------------------------------------|
E|---------------------------------------------------------------------------|
Добавлено: 04.04.2016
Другие материалы по этой песне:
  • Аккорды и текст

Страница создана 04.04.2016
http://primanota.ru/belzebuth/cul-de-sac-chords.htm
Привет, Гость.
Предлагаем пройти революционный курс по гитаре.
Подарок от PrimaNota.Ru, забирай!