PrimaNota.ru - самый крупный в мире бесплатный архив песенных текстов, аккордов, табулатур и нот


Belzebong - Bong Thrower - таба, видео

Регистрация Запомнить меня
Войти через:  Facebook Google Twitter Vk Yandex Mail.ru

Belzebong - Bong Thrower - таба, видео

Печатать
Просмотров: 90
Tabbed by: Hyks97 - 15/4/2012


Artist: Belzebong
Album: Sonic scapes & Weedy grooves
Song: Bong thrower


Tuning: B tuning
(B, E, A, D, Gb ,B)


Riff 1. 0:05 - 1:41
|1|---------------------------|----------------------------|
|2|---------------------------|----------------------------|
|3|---------------------------|----------------------------|
|4|---------------------------|----------------------------|
|5|-------/7~~--7-5---5---5-7-|-------/7~~--7-5---5--------|
|6|-0~~~~~----------7---7-----|-0~~~~~----------7----7-6-7-|
|
|1|---------------------------|-------------------------|
|2|---------------------------|-------------------------|
|3|---------------------------|-------------------------|
|4|---------------------------|-7-7-7-8~~---5-7-5-5-4-4-|
|5|-------/7~~--7-5---5---5-7-|-7-7-7-8~~---5-7-5-5-4-4-|
|6|-0~~~~~----------7---7-----|-5-5-5-6~~-0-3-5-3-3-2-2-|


Every 3rd time, play it like this
|1|---------------------------|--------------------------|
|2|---------------------------|--------------------------|
|3|---------------------------|--------------------------|
|4|---------------------------|--------------------------|
|5|-------/7~~--7-5---5---5-7-|-------/7~~-------5---5-7-|
|6|-0~~~~~----------7---7-----|-0~~~~~-----5-6-7---7-----|
|
|1|---------------------------|-------------------------|
|2|---------------------------|-------------------------|
|3|---------------------------|-------------------------|
|4|---------------------------|-7-7-7-8~~---5-7-5-5-4-4-|
|5|-------/7~~--7-5---5---5-7-|-7-7-7-8~~---5-7-5-5-4-4-|
|6|-0~~~~~----------7---7-----|-5-5-5-6~~-0-3-5-3-3-2-2-|




Riff 2. 1:41 - 2:11
|1|------------------------------|----------------------|
|2|------------------------------|----------------------|
|3|---------7~~-7-7--7-7--8-8-/9-|----------------------|
|4|-2~~~~---7~~-7-7--7-7--8-8-/9-|-7-7-7-8~~--5-7-5-4-3-|
|5|-2~~~~-2-5~~-5-5--5-5--6-6-/7-|-7-7-7-8~~--5-7-5-4-3-|
|6|-0~~~~-0----------------------|-5-5-5-6~~0-3-5-3-2-1-|


Riff 3. 2:11 - 3:47
|1|-----------------------|------------------------|
|2|-----------------------|------------------------|
|3|-----------------------|------------------------|
|4|-2~~~~~~~~~~---5b~~~~~~|-2~~~~~~~~~~---5b~~~~~~~|
|5|-2~~~~~~~~~~---5b~~~~~~|-2~~~~~~~~~~---5b~~~~~~~|
|6|-0~~~~~~~~~~-0-3b~~~~~~|-0~~~~~~~~~~-0-3b~~~~~~~|
|
|1|-----------------------|------------------------------------|
|2|-----------------------|------------------------------------|
|3|-----------------------|------------------------------------|
|4|-2~~~~~~~~---5b~~~~~~~~|-7~~-7~~----------8~~~-8-8-8-7-5b~~-|
|5|-2~~~~~~~~---5b~~~~~~~~|-7~~-7~~-7--5--2--8~~~-8-8-8-7-5b~~-|
|6|-0~~~~~~~~-0-3b~~~~~~~~|-5~~-5~~-5--3--0--6~~~-6-6-6-5-3b~~-|

Bridge. 3:47 - 4:20 (lol)
|1|------------------------------|
|2|------------------------------|
|3|------------------------------|
|4|-2~~~~~~~~~~~~~~~~~~~~~~~~~~--|
|5|-2~~~~~~~~~~~~~~~~~~~~~~~~~~--|
|6|-0~~~~~~~~~~~~~~~~~~~~~~~~~~--|


The bass plays Riff 1 for a while before the guitar comes back in on the 4th measure of Riff 1


       4:20 - 5:22
|1|---------------------------|----------------------------|
|2|---------------------------|----------------------------|
|3|---------------------------|----------------------------|
|4|---------------------------|----------------------------|
|5|-------/7~~--7-5---5---5-7-|-------/7~~--7-5---5--------|
|6|-0~~~~~----------7---7-----|-0~~~~~----------7----7-6-7-|
|
|1|---------------------------|-------------------------|
|2|---------------------------|-------------------------|
|3|---------------------------|-------------------------|
|4|---------------------------|-7-7-7-8~~---5-7-5-5-4-4-|
|5|-------/7~~--7-5---5---5-7-|-7-7-7-8~~---5-7-5-5-4-4-|
|6|-0~~~~~----------7---7-----|-5-5-5-6~~-0-3-5-3-3-2-2-|


Every 3rd time, play it like this
|1|---------------------------|--------------------------|
|2|---------------------------|--------------------------|
|3|---------------------------|--------------------------|
|4|---------------------------|--------------------------|
|5|-------/7~~--7-5---5---5-7-|-------/7~~-------5---5-7-|
|6|-0~~~~~----------7---7-----|-0~~~~~-----5-6-7---7-----|
|
|1|---------------------------|-------------------------|
|2|---------------------------|-------------------------|
|3|---------------------------|-------------------------|
|4|---------------------------|-7-7-7-8~~---5-7-5-5-4-4-|
|5|-------/7~~--7-5---5---5-7-|-7-7-7-8~~---5-7-5-5-4-4-|
|6|-0~~~~~----------7---7-----|-5-5-5-6~~-0-3-5-3-3-2-2-|



Riff 2 again.  5:22 - 5:51
|1|------------------------------|----------------------|
|2|------------------------------|----------------------|
|3|---------7~~-7-7--7-7--8-8-/9-|----------------------|
|4|-2~~~~---7~~-7-7--7-7--8-8-/9-|-7-7-7-8~~--5-7-5-4-3-|
|5|-2~~~~-2-5~~-5-5--5-5--6-6-/7-|-7-7-7-8~~--5-7-5-4-3-|
|6|-0~~~~-0----------------------|-5-5-5-6~~0-3-5-3-2-1-|



Then Riff 3 plays. 5:51 - 7:27
|1|-----------------------|------------------------|
|2|-----------------------|------------------------|
|3|-----------------------|------------------------|
|4|-2~~~~~~~~~~---5b~~~~~~|-2~~~~~~~~~~---5b~~~~~~~|
|5|-2~~~~~~~~~~---5b~~~~~~|-2~~~~~~~~~~---5b~~~~~~~|
|6|-0~~~~~~~~~~-0-3b~~~~~~|-0~~~~~~~~~~-0-3b~~~~~~~|
|
|1|-----------------------|------------------------------------|
|2|-----------------------|------------------------------------|
|3|-----------------------|------------------------------------|
|4|-2~~~~~~~~---5b~~~~~~~~|-7~~-7~~----------8~~~-8-8-8-7-5b~~-|
|5|-2~~~~~~~~---5b~~~~~~~~|-7~~-7~~-7--5--2--8~~~-8-8-8-7-5b~~-|
|6|-0~~~~~~~~-0-3b~~~~~~~~|-5~~-5~~-5--3--0--6~~~-6-6-6-5-3b~~-|


Outro 7:27 - 8:21
|1|-------------|-------------|-------------|-------------|
|2|-------------|-------------|-------------|-------------|
|3|-------------|-------------|-------------|-------------|
|4|-2~~~~~~~~~~-|-2~~~~~~~~~~-|-2~~~~~~~~~~-|-2~~~~~~~~~~-|
|5|-2~~~~~~~~~~-|-2~~~~~~~~~~-|-2~~~~~~~~~~-|-2~~~~~~~~~~-|
|6|-0~~~~~~~~~~-|-0~~~~~~~~~~-|-0~~~~~~~~~~-|-0~~~~~~~~~~-|
|
|1|-----------------------------------------------|
|2|-----------------------------------------------|
|3|-----------------------------------------------|
|4|-2~~~~~~~~~~~~~~~~~~~~~~~~~~~~~~~~~~~~~~~~~~~~-|
|5|-2~~~~~~~~~~~~~~~~~~~~~~~~~~~~~~~~~~~~~~~~~~~~-|
|6|-0~~~~~~~~~~~~~~~~~~~~~~~~~~~~~~~~~~~~~~~~~~~~-|


Legend:
~ = Hold note
/ = Slide
b = Bend
Добавлено: 05.08.2013
Вам также может быть интересно:
Другие материалы по этой песне:
  • Аккорды и текст

Страница создана 05.08.2013
http://primanota.ru/belzebong/bong-thrower-chords.htm
Привет, Гость.
Предлагаем пройти революционный курс по гитаре.
Подарок от PrimaNota.Ru, забирай!