PrimaNota.ru - самый крупный в мире бесплатный архив песенных текстов, аккордов, табулатур и нот


Belvedere - Stain - текст песни, бас-таба, видео

Регистрация Запомнить меня
Войти через:  Facebook Google Twitter Vk Yandex Mail.ru

Belvedere - Stain - текст песни, бас-таба, видео

Печатать
Просмотров: 140
++++++++++++++++++++
| Belvedere- Stain |
++++++++++++++++++++

Tuning: EADG

I think the song itself is kinda boring
But the bass sure rocks
Anyway, heres the tab
I know the song is in Drop D
But my bass is at standard atm and I dont wanna switch it
Anyway, the notes are all there, you just have to change strings and frets
If you play it at Drop D.. you'll get it... :D

Intro
1.
G|---------10-10-8-8-7-7---------------------------------------------------|
D|-----8-8---------------10-10-8-8-7-7------7-7-8-8-10-10--5-5-8-8-7-7-----|
A|-6-6----------------------------------8-8----------------------------8-8-|
E|-------------------------------------------------------------------------|

2.
G|---------10-10-8-8-7-7---------------------------------------------------|
D|-----8-8---------------10-10-8-8-7-7------7-7-8-8-10-10--5-5-8-8-7h8p7---|
A|-6-6----------------------------------8-8------------------------------8-|
E|-------------------------------------------------------------------------|

Play that for alooooooot of times

00:37
3.
G|--------------------------------|
D|-------------------55-5~----55x-|
A|-66-6~----66-6~-----------------|
E|--------------------------------|

Verse
"What difference does it make..."
4.
G|-----------------------------------------------------------------|
D|---------5-55-55-3-33-33-3-33-33-----------------5-55-55-5-55-55-|
A|-6-66-66-------------------------6-66-66-5-55-55-----------------|
E|-----------------------------------------------------------------|

5.
G|-----------------------------------------------------------------|
D|---------5-55-55-7-77-77-7-77-77-----------------5-55-55-5-55-55-|
A|-6-66-66-------------------------6-66-66-5-55-55-----------------|
E|-----------------------------------------------------------------|

Chorus
7.
G|---------------------------------|
D|-----8-------8-------------------|
A|-6-56-65-6-56-65x-8888---------5-|--x2
E|----------------------1-3-33577--|

8.
G|-------------------------------------------------------------------|
D|-------------------------------------------------------------------|
A|-6-66-66-5-55-55-----------------6-66-66-5-55-55-------------------|
E|-----------------1-11-11-3-33-33-----------------1-11-11-11-111-3x-|

9.
G|----------------------------------------------------------|
D|----------------------------------------------------------|
A|-3-333333-6-666666----55-----------3-333333------------55-|
E|-------------------66----3-333333-----------6-66666-66----|

10.
G|-----------------------------------------------------------------------------------------|
D|-88-888--------xx55xx55xx5-88-888--------xx55xx55xx5-xx55xx55xx5-xx55xx58xx5-xx55xx55xx5-|
A|--------66-666--------------------66-666-------------------------------------------------|
E|-----------------------------------------------------------------------------------------|

Verse
11.
G|-------------------------------------------------------------------------|
D|----------55555555-33333333-33333333-------------------55555555-55555555-|
A|-66666666----------------------------66666666-55555555-------------------|
E|-------------------------------------------------------------------------|

12.
G|-------------------------------------------------------------------------|
D|----------55555555-77777777-77777777-------------------55555555-55555555-|
A|-66666666----------------------------66666666-55555555-------------------|
E|-------------------------------------------------------------------------|

Chorus
13.
G|---------------------------------|
D|-----8-------8-------------------|
A|-6-56-65-6-56-65x-8888---------5-|--x2
E|----------------------1-3-33577--|

14.
G|-------------------------------------------------------------------|
D|-------------------------------------------------------------------|
A|-6-66-66-5-55-55-----------------6-66-66-5-55-55-------------------|
E|-----------------1-11-11-3-33-33-----------------1-11-11-11-111-3x-|

15.
G|----------------------------------------------------------|
D|----------------------------------------------------------|
A|-3-333333-6-666666----55-----------3-333333------------55-|
E|-------------------66----3-333333-----------6-66666-66----|

16.
G|--------------------------------------------------------------------------------------|
D|-88-888--------xx55xx55xx5-88-888--------xx55xx55xx5-xx55xx55xx5-5x-5x-5x-5x-5x-5x-5x-|
A|--------66-666--------------------66-666----------------------------------------------|
E|--------------------------------------------------------------------------------------|

17.
G|---------10-10-8-8-7-7---------------------------------------------------|
D|-----8-8---------------10-10-8-8-7-7------7-7-8-8-10-10--5-5-8-8-7-7-----|
A|-6-6----------------------------------8-8----------------------------8-8-|
E|-------------------------------------------------------------------------|

18.
G|---------10-10-8-8-7-7---------------------------------------------------|
D|-----8-8---------------10-10-8-8-7-7------7-7-8-8-10-10--5-5-8-8-7h8p7---|
A|-6-6----------------------------------8-8------------------------------8-|
E|-------------------------------------------------------------------------|

19.
G|--------------------------------|
D|-------------------55-5~----55x-|
A|-66-6~----66-6~-----------------|
E|--------------------------------|

Lyrics:

What difference does it make, is it so important,
worth the friendships it will break
all this strife for prevailing moments,
now it's yours so fucking own it
and wear that crown of pain

For the record (for the record)
No animosity, only rudders (only rudders)
Directions never real
For your records, (for your records)
never follow the lead, motivations
the path too dark to see

Can't turn it back, can't turn away
rearrange those words you said
those days are burned in memories
and I doubt you'll ever come

To satisfy the green, to justify your need
instantaneous retreat, should have been expected
I hope you're choking on those feet, rationale neglected

(This brick wall) a sand castle
(Apologies) not worth the hassle
of a moment of humility

For the moment (for the moment)
No animosity, only pity (only pity)
of the life you lead
for a moment (for a moment)
see yourself clearly these motivations
are never what they seem

To satisfy your greed
ya are you satisfied

Hope you find safety in having nothing (I hope you find)

+++++++++++++++++++

Well, Im glad that's over...
Took me a big while to tab it out
Hope you enjoy

+++++++++++++++++++++++++++++++++
| RaiLeff                       |
| Underground__Dora@Hotmail.Com |
+++++++++++++++++++++++++++++++++
Добавлено: 11.05.2012
Другие материалы по этой песне:
  • Аккорды и текст

Страница создана 11.05.2012
http://primanota.ru/belvedere/stain-chords.htm
Привет, Гость.
Предлагаем пройти революционный курс по гитаре.
Подарок от PrimaNota.Ru, забирай!