PrimaNota.ru - самый крупный в мире бесплатный архив песенных текстов, аккордов, табулатур и нот


Belvedere - Brandy Wine - текст песни, бас-таба, видео

Регистрация Запомнить меня
Войти через:  Facebook Google Twitter Vk Yandex Mail.ru

Belvedere - Brandy Wine - текст песни, бас-таба, видео

Печатать
Просмотров: 227
Уроки эстрадного вокала в Санкт-Петербурге
Brandy Wine
Belvedere

tabbed by: Glau glau - Glausong's
Bass Intro

--------9/10-9--------------------12-9------------------------|
----10-----------10----------12--------10---------------------|
--8--------------------8 / 10-----------------------      X 1-|
--------------------------------------------------------------|


-12-12-10-14-12-10-9-10---12-12-12-10-14-10-12-12-12--------------------------|
-0----0---0---0---0--0--0--0----10-10-10-10-10-10-10-10-10--------------------|
------------------------------------------------------------------------------|
              X 1
-----------------------------------------------------------------------------

-10-10-10-10-10-10-10-10-10-10-------------------------------------------------------|
--7---7---7---7---7--8---8---8---8---8----10-10-10-10-10-12-12-12-12-12--------------|
---------------------------------------------------8---8---8--8---8--10-10-10-10-10--|
         X 1
--------------------------------------------------------------------------------------------------

----------------------------------------------------------------|
---------------------------------------333-55-88888-333-555-----|
-55555555-777777-888888----------------------------------11111--|
----------------------------------------------------------------|
 X 1

Verse

( finally I see your plan.. )

---------------------------------------------|
------------77777-88888----------------------|
--55555---------------------77-8-7-----------|
---------------------------------------------|
                                                                          X
  2
-------------------------------------------------|
-------------------------------------------------|
-555555-3333333-00-8-7-0------8------------------|
---------------------------------------6-6---8---|

Pre Chorus

---------------------------------------------|
---------------------------------------------|
--5555---5555--5555--5555--------------------|
---------------------------------------------|

------------------------------------------------------|
--------7-10-10-10-10---------------------------------|
--888-----------------------------10-10-10-10-10-10---|
-----------------------------8888---------------------|

---------------------------------------------|
---------------------------------------------|
--5555---5555--5555--5555--------------------|
---------------------------------------------|

---------------------------------------------------------------|
---------------------------------------------------------------|
--88888888-10h12-8888-7-8-10-10-10-10-10-10-10-10-10---10-8-7--|
---------------------------------------------------------------|

Chorus

-------------------------------|
-------------------------------|
-----------------555555-10h12--|
          X 2
--66666666-----------------------555555555555-666666-(6-5-6-8-6-5)------   (
play twice the second time )

then..

( hangin' on me )

------------------------------------------------------------|
------------------------------------------------------------|
---555555555-888888888-00000-11111--------------------------|
------------------------------------------------------------|

riff

--------------------------------|
---------3--3-8-7--7------------|
-5-3-5---5-------8--8-7---------|
--------------------------------|

Verse

Pre Chorus # 2

---------------------------------------------|
---------------------------------------------|
--5555---5555--5555--5555-/------------------|
---------------------------------------------|

---------------------------------------------|
--------------------------8888---------------|
--5555-7777-8888-----------------------------|
---------------------------------------------|


------------------------------------------------------|
------------------------------------------------------|
--88888888-10h12-8888-7-8-10-10-10-10-10-10-10-10-10--|
------------------------------------------------------|

Chorus

Fall back.. start over..

---------------------------------------------------------------------|
---------------------------------------------------------------------|
-xx 10h12------------------------------------------------------------|
--------------555555555555-666666-6-5-6-8-6-5------------------------|

------------------------------------------------------------------------------|
------------------------------------------------------------------------------|
-----------------555555-10h12-------------------------------------------------|
--66666666-----------------------555555555555-666666-6-5-6-8-6-5-6-5-6-8-6-5--|


Bridge

-12-12-12-12-10-10-12-12-14-14-9-9-10-10-12-12---------------------------------|
--0---0---0---0--0---0---0---0---0---0-0-0--0---0---0---0----------------------|
-------------------------------------------------------------------------------|
-------------------------------------------------------------------------------|

-12-12-12-12-10-10-10-10-14-10-10-12-12-12-12------------------------------|
-10-10-10-10-10-10-10-10-10-10-10-10-10-10-10------------------------------|
---------------------------------------------------------------------------|
---------------------------------------------------------------------------|

-10-10-10-10-10-10-10-10-10-10-10-10-10-10-10-10---------------------------|
--7---7---7---7--7---7---7---7---8--8---8---8---8---8--8---8---------------|
---------------------------------------------------------------------------|
---------------------------------------------------------------------------|

---------------------------------------------------------------------|
-10-10-10-10-10-10-10-10-12-12-12-12---------------------------------|
--8---8--8----8--8---8---8---8-10-10-10--10--------------------------|
---------------------------------------------------------------------|


( had your chance.. your time has past..)

-------------------------------------------------------------------------------|
---------------------------------------------------------33333-55555-----------|
---555555555-888888888-00000-11111---------------------------------------------|
-------------------------------------------------------------------------------|

Outro

------------------------------------------------------------|
------------------------------------------------------------|
---555555555-888888888-00000-11111--------------------------|
------------------------------------------------------------|

-----------------------------------------------------|
---------3--3-8-7--7-------                      X 2-|
-5-3-5---5-------8--8-7------------------------------|
-----------------------------------------------------|

End on

------------|
------------|
-5-~~~~
----------
Добавлено: 06.05.2012
Другие материалы по этой песне:

Страница создана 31.03.2012
http://primanota.ru/belvedere/brandy-wine-chords.htm
Привет, Гость.
Предлагаем пройти революционный курс по гитаре.
Подарок от PrimaNota.Ru, забирай!