PrimaNota.ru - самый крупный в мире бесплатный архив песенных текстов, аккордов, табулатур и нот


Belvedere - 2nd Column - текст песни, таба, бас-таба, видео

Регистрация Запомнить меня
Войти через:  Facebook Google Twitter Vk Yandex Mail.ru

Belvedere - 2nd Column - текст песни, таба, бас-таба, видео

Печатать
Просмотров: 186
Tabbed by: Sébastien (belvederepunk@punkhardcore.net)

Tuning: Drop D (D A D G B E)

p.m.= Palm Muting 
*= Palm Muting 
H= Hammer-On 
P= Pull-Off 

Listen to the song and enjoy! 
Please visit : www.belvederepunk.com 
Belvedre Rock so hard!!! 
Email-me!!! : belvederepunk@punkhardcore.net 


Intro (4x) 

Guitar 1 
e|------------------------------------------------------------------------------------| 
B|------------------------------------------------------------------------------------| 
G|------*-*-*-*----------------*--*--*--*---------10-10-10-10-10-10--5-5-5--7---------| 
D|--7--7-7-7-7-7--7-7---10-10-10-10-10-10-10-------x--x--x--x--x--x--x-x-x--x---------| 
A|--5--5-5-5-5-5--5-5----8--8--8--8--8--8--8-------8--8--8--8--8--8--3-3-3--5---------| 
D|------------------------------------------------------------------------------------| 

Guitar 2 
e|------------------------------------------------------------------------------------| 
B|------------------------------------------------------------------------------------| 
G|------*-*-*-*----------------*--*--*--*---------------------------------------------| 
D|--7--7-7-7-7-7--7-7---10-10-10-10-10-10--10-------5~~-------------------3~--------3-| 
A|--5--5-5-5-5-5--5-5----8--8--8--8--8--8---8-------3~~-------------------0~--------1-| 
D|------------------------------------------------------------------------------------| 



Riff 1 (2x) 

Guitar 1 & 2 
e|----------------------------------------------------------------------| 
B|----------------------------------------------------------------------| 
G|----------------------------------------------------------------------| 
D|---000-7-5--0000-8----000-7-5--0000-10--------------------------------| 
A|---000-7-5--0000-8----000-7-5--0000-10--------------------------------| 
D|---000-7-5--0000-8----000-7-5--0000-10--------------------------------| 
_____***______****______***______**** 


Pré-Chorus (4x) 

Guitar 1 
e|-------------------------------------------| 
B|-------------------------------------------| 
G|---7-7-7----9-9-9---10-10-10----12-12-12---| 
D|---x-x-x----x-x-x----x--x--x-----x--x--x---| 
A|---5-5-5----7-7-7----8--8--8----10-10-10---| 
D|-------------------------------------------| 

Guitar 2 
e|-------------------------------------------| 
B|-------------------------------------------| 
G|---7-7-7----5-5-5----3-3-3----3-3-3--------| 
D|---7-7-7----5-5-5----3-3-3----3-3-3--------| 
A|---5-5-5----3-3-3----1-1-1----1-1-1--------| 
D|-------------------------------------------| 

Chorus (x2) 

Guitar 1 
e|-------------------------------------------------------------------------------------| 
B|-------------------------------------------------------------------------------------| 
G|-9-9-9-9---9-9-9-9---5-5-5-5---5-5-5-5---7-7-7-7---7-7-7-7--10-10-10-10--10-10-10-10-| 
D|-x-x-x-x---x-x-x-x---x-x-x-x---x-x-x-x---x-x-x-x---x-x-x-x---x--x--x--x---x--x--x--x-| 
A|-7-7-7-7---7-7-7-7---3-3-3-3---3-3-3-3---5-5-5-5---5-5-5-5---8--8--8--8---8--8--8--8-| 
D|-------------------------------------------------------------------------------------| 

Guitar 2 
e|------------------------------------------------------------------------------| 
B|------------------------------------------------------------------------------| 
G|-5-5-5-5---5-5-5-5---2-2-2-2---2-2-2-2---3-3-3-3---3-3-3-3--------------------| 
D|-5-5-5-5---5-5-5-5---2-2-2-2---2-2-2-2---3-3-3-3---3-3-3-3--3-3-3-3---3-3-3-3-| 
A|-3-3-3-3---3-3-3-3---0-0-0-0---0-0-0-0---1-1-1-1---1-1-1-1--3-3-3-3---3-3-3-3-| 
D|------------------------------------------------------------3-3-3-3---3-3-3-3-| 

Riff 2 (4x) 

Guitar 1 
e|---------------------------------------------------------------------------| 
B|---------------------------------------------------------------------------| 
G|---------------------------------------------------------------------------| 
D|------7------7-----7------7-----7-----7------7---7-h8-p7-h8-p7-------------| 
A|-8--8--8--8--8--8--8--8--8--8--8--8--8--8--8-------------------------------| 
D|---------------------------------------------------------------------------| 

Guitar 2 
e|---------------------------------------------------------------------------| 
B|---------------------------------------------------------------------------| 
G|---7-7-7-7-7-7-7-7-10-10-10-10-10-10-10-10----5-5-5-5-5-3-3-3-3------------| 
D|---7-7-7-7-7-7-7-7-10-10-10-10-10-10-10-10----5-5-5-5-5-3-3-3-3------------| 
A|---5-5-5-5-5-5-5-5--8--8--8--8--8--8--8--8----3-3-3-3-3-0-0-0-1------------| 
D|---------------------------------------------------------------------------| 


After play: 
Riff 1 (4x) 
Pré-Chorus (4x) 
Chorus (2x) 

Bridge 

Guitar 1 
e|----------------------------------------------------------------| 
B|----------------------------------------------------------------| 
G|----10~~--------------------------------------------------------| 
D|----x-----------------------------------------------------------| 
A|----8~~---------------------------------------------------------| 
D|----------------------------------------------------------------| 

Guitar 2 
e|----------------------------------------------------------------| 
B|----------------------------------------------------------------| 
G|----------------------------------------------------------------| 
D|----------------------------------------------------------------| 
A|-55555555---33333333---11111111---------------------------------| 
D|--------------------------------33333333------------------------| 
**p.m.------------------------------------| 


Riff 3 

Guitar 1 
e|--------------------------------------------------------| 
B|--------------------------------------------------------| 
G|-10~--12--10~---9---10~--9---5-5------------------------| 
D|--x----x---x----x----x---x---x-x------------------------| 
A|--8~--10---8~---7----8~--7---3-3------------------------| 
D|--------------------------------------------------------| 

Guitar 2 
e|--------------------------------------------------------| 
B|--------------------------------------------------------| 
G|-7777777-5555555-3333333--------------------------------| 
D|-7777777-5555555-3333333-3333333------------------------| 
A|-5555555-3333333-1111111-3333333------------------------| 
D|-------------------------3333333------------------------| 

Pre-Solo 

Guitar 1 
e|--------------------------------------------------------------------------| 
B|--------------------------------------------------------------------------| 
G|--------------------------------------------------------------------------| 
D|--------10-10-9-9-------10-10-9-9-------10-10-9-9-10-10-9-9----------(3x)-| 
A|-5-5-7-7---------5-5-7-7---------5-5-7-7-------------------10-10-9-9------| 
D|--------------------------------------------------------------------------| 

|------------------------| 
|------------------------| 
|------------------(3x)--| <-- After Guitar 1 play this 
|--------10-10-9-9-------| 
|-5-5-7-7----------------| 
|------------------------| 

Guitar 2 
e|--------------------------------------------------------------------------| 
B|--------------------------------------------------------------------------| 
G|-7777777-5555555-3333333-----------7777777-5555555-3333333----*****-------| 
D|-7777777-5555555-3333333-3333333---7777777-5555555-3333333-33-33333-3-----| 
A|-5555555-3333333-1111111-3333333---5555555-3333333-1111111-33-33333-3-----| 
D|-------------------------3333333---------------------------33-33333-3-----|
Добавлено: 05.04.2012
Другие материалы по этой песне:
  • Аккорды и текст

Страница создана 25.03.2012
http://primanota.ru/belvedere/2nd-column-chords.htm
Привет, Гость.
Предлагаем пройти революционный курс по гитаре.
Подарок от PrimaNota.Ru, забирай!