PrimaNota.ru - самый крупный в мире бесплатный архив песенных текстов, аккордов, табулатур и нот


Belphegor - Shred For Sathan - текст песни, таба, видео

Регистрация Запомнить меня
Войти через:  Facebook Google Twitter Vk Yandex Mail.ru

Belphegor - Shred For Sathan - текст песни, таба, видео

Печатать
Просмотров: 153
Уроки эстрадного вокала в Санкт-Петербурге
                              Shred for Sathan                                  


                                                                       Belphegor
Track 1
Tabbed by ear for one guitar. No solo, sorry!



      TP        TP   TP    TP    TP      TP       TP        TP        
      H         Q    Q     Q     Q       H        H         H         
D||-----------------------------------|------------------------------|
A||-----------------------------------|------------------------------|
F||*-----------10----9----10----------|-----------9--------10--------|
C||*--7-------------------------10----|--7---------------------------|
G||-----------------------------------|------------------------------|
C||-----------------------------------|------------------------------|


  TP       TP          TP        TP   TP    TP    TP    
  H        H           H         Q    Q     Q     Q     
--------------------|----------------------------------|
--------------------|----------------------------------|
--8--------6--------|-----------10----9----10----------|
--8--------6--------|--7-------------------------10----|
--------------------|----------------------------------|
--------------------|----------------------------------|


  TP       TP        TP          TP       TP        
  H        H         H           H        H         
------------------------------|--------------------|
------------------------------|--------------------|
-----------9--------10--------|--6--------8--------|
--7---------------------------|--6--------8--------|
------------------------------|--------------------|
------------------------------|--------------------|


   TP        TP    TP    TP    TP       TP        TP        TP        
   H         Q     Q     Q     Q        H         H         H         
------------------------------------|--------------------------------|
------------------------------------|--------------------------------|
------------13----12----13----------|------------12--------13--------|
--10--------------------------13----|--10----------------------------|
------------------------------------|--------------------------------|
------------------------------------|--------------------------------|


   TP       TP           TP        TP    TP    TP    TP    
   H        H            H         Q     Q     Q     Q     
---------------------|------------------------------------|
---------------------|------------------------------------|
--11--------9--------|------------13----12----13----------|
--11--------9--------|--10--------------------------13----|
---------------------|------------------------------------|
---------------------|------------------------------------|


   TP        TP        TP          TP        TP          
   H         H         H           H         H           
--------------------------------|----------------------||
--------------------------------|----------------------||
------------12--------13--------|--9--------11--------*||
--10----------------------------|--9--------11--------*||
--------------------------------|----------------------||
--------------------------------|----------------------||


    TP                      TP    TP    TP    
    W                 Q     Q     Q     Q     
---------------------------------------------|
---------------------------------------------|
*--10-----------------L----------------------|
*--12-----------------L----10----11----10----|
---------------------------------------------|
---------------------------------------------|


   TP                      TP    TP    TP    
   W                 Q     Q     Q     Q     
--------------------------------------------|
--------------------------------------------|
--10-----------------L----------------------|
--12-----------------L----10----12----13----|
--------------------------------------------|
--------------------------------------------|


   TP                      TP    TP    TP    
   W                 Q     Q     Q     Q     
--------------------------------------------|
--------------------------------------------|
--10-----------------L----------------------|
--12-----------------L----10----11----10----|
--------------------------------------------|
--------------------------------------------|


   TP                TP       TP             TP               TP                
   W                 H        H              W                W                 
----------------------------------------||-------------------------------------|
--------------------10--------9---------||-------------------------------------|
--10-----------------9--------8--------*||*------------------------------------|
--12-----------------------------------*||*--7----------------9----------------|
----------------------------------------||---7----------------9----------------|
----------------------------------------||---7----------------9----------------|


   TP               TP       TP          TP               TP                
   W                H        H           W                W                 
--------------------------------------|------------------------------------|
--------------------4--------3--------|------------------------------------|
--------------------------------------|------------------------------------|
--10----------------------------------|--7----------------9----------------|
--10----------------------------------|--7----------------9----------------|
--10----------------------------------|--7----------------9----------------|


   TP               TP   TP   TP TP      
   W                Q    Q    E  Q.      
----------------------------------------|
--------------------4----6----4--4------|
----------------------------------------|
--10------------------------------------|
--10------------------------------------|
--10------------------------------------|


  TP       TP        TP       TP        
  H        H         H        H         
---------------------------------------|
--3------------------------------------|
-----------7--------14--------7--------|
---------------------------------------|
---------------------------------------|
---------------------------------------|


   TP       TP        TP        TP        
   H        H         H         H         
-----------------------------------------|
-----------------------------------------|
--12--------5--------12--------14--------|
-----------------------------------------|
-----------------------------------------|
-----------------------------------------|


  TP       TP        TP       TP        
  H        H         H        H         
---------------------------------------|
--3------------------------------------|
-----------7--------14--------7--------|
---------------------------------------|
---------------------------------------|
---------------------------------------|


   TP       TP        TP        TP          
   H        H         H         H           
------------------------------------------||
------------------------------------------||
--12--------5--------15--------14--------*||
-----------------------------------------*||
------------------------------------------||
------------------------------------------||


   TP                      TP    TP    TP    
   W                 Q     Q     Q     Q     
--------------------------------------------|
--------------------------------------------|
--10-----------------L----------------------|
--12-----------------L----10----11----10----|
--------------------------------------------|
--------------------------------------------|


   TP                      TP    TP    TP    
   W                 Q     Q     Q     Q     
--------------------------------------------|
--------------------------------------------|
--10-----------------L----------------------|
--12-----------------L----10----12----13----|
--------------------------------------------|
--------------------------------------------|


   TP                      TP    TP    TP    
   W                 Q     Q     Q     Q     
--------------------------------------------|
--------------------------------------------|
--10-----------------L----------------------|
--12-----------------L----10----11----10----|
--------------------------------------------|
--------------------------------------------|


   TP                TP       TP        
   W                 H        H         
---------------------------------------|
--------------------10--------9--------|
--10-----------------9--------8--------|
--12-----------------------------------|
---------------------------------------|
---------------------------------------|


   TP                      TP    TP    TP    
   W                 Q     Q     Q     Q     
--------------------------------------------|
--------------------------------------------|
--10-----------------L----------------------|
--12-----------------L----10----11----10----|
--------------------------------------------|
--------------------------------------------|


   TP                      TP    TP    TP    
   W                 Q     Q     Q     Q     
--------------------------------------------|
--------------------------------------------|
--10-----------------L----------------------|
--12-----------------L----10----12----13----|
--------------------------------------------|
--------------------------------------------|


   TP                      TP    TP    TP    
   W                 Q     Q     Q     Q     
--------------------------------------------|
--------------------------------------------|
--10-----------------L----------------------|
--12-----------------L----10----11----10----|
--------------------------------------------|
--------------------------------------------|


   TP                TP       TP        
   W                 H        H         
---------------------------------------|
--------------------10--------9--------|
--10-----------------9--------8--------|
--12-----------------------------------|
---------------------------------------|
---------------------------------------|


     TP                      TP    TP    TP    
     W                 Q     Q     Q     Q     
|---------------------------------------------|
|---------------------------------------------|
|*--10-----------------L----------------------|
|*--12-----------------L----10----11----10----|
|---------------------------------------------|
|---------------------------------------------|


   TP                      TP    TP    TP    
   W                 Q     Q     Q     Q     
--------------------------------------------|
--------------------------------------------|
--10-----------------L----------------------|
--12-----------------L----10----12----13----|
--------------------------------------------|
--------------------------------------------|


   TP                      TP    TP    TP    
   W                 Q     Q     Q     Q     
--------------------------------------------|
--------------------------------------------|
--10-----------------L----------------------|
--12-----------------L----10----11----10----|
--------------------------------------------|
--------------------------------------------|


   TP                TP       TP             TP               TP                
   W                 H        H              W                W                 
----------------------------------------||-------------------------------------|
--------------------10--------9---------||-------------------------------------|
--10-----------------9--------8--------*||*------------------------------------|
--12-----------------------------------*||*--7----------------9----------------|
----------------------------------------||---7----------------9----------------|
----------------------------------------||---7----------------9----------------|


   TP               TP       TP          TP               TP                
   W                H        H           W                W                 
--------------------------------------|------------------------------------|
--------------------4--------3--------|------------------------------------|
--------------------------------------|------------------------------------|
--10----------------------------------|--7----------------9----------------|
--10----------------------------------|--7----------------9----------------|
--10----------------------------------|--7----------------9----------------|


   TP               TP   TP   TP TP      
   W                Q    Q    E  Q.      
----------------------------------------|
--------------------4----6----4--4------|
----------------------------------------|
--10------------------------------------|
--10------------------------------------|
--10------------------------------------|


  TP       TP        TP       TP        
  H        H         H        H         
---------------------------------------|
--3------------------------------------|
-----------7--------14--------7--------|
---------------------------------------|
---------------------------------------|
---------------------------------------|


   TP       TP        TP        TP        
   H        H         H         H         
-----------------------------------------|
-----------------------------------------|
--12--------5--------12--------14--------|
-----------------------------------------|
-----------------------------------------|
-----------------------------------------|


  TP       TP        TP       TP        
  H        H         H        H         
---------------------------------------|
--3------------------------------------|
-----------7--------14--------7--------|
---------------------------------------|
---------------------------------------|
---------------------------------------|


   TP       TP        TP        TP          
   H        H         H         H           
------------------------------------------||
------------------------------------------||
--12--------5--------15--------14--------*||
-----------------------------------------*||
------------------------------------------||
------------------------------------------||


   TP        TP    TP    TP    TP      TP        TP        TP        
   H         Q     Q     Q     Q       H         H         H         
------------------------------------|-------------------------------|
------------------------------------|-------------------------------|
*-----------12----11----12----------|-----------11--------12--------|
*--9--------------------------12----|--9----------------------------|
------------------------------------|-------------------------------|
------------------------------------|-------------------------------|


   TP       TP          TP        TP    TP    TP    TP    
   H        H           H         Q     Q     Q     Q     
---------------------|-----------------------------------|
---------------------|-----------------------------------|
--10--------8--------|-----------12----11----12----------|
--10--------8--------|--9--------------------------12----|
---------------------|-----------------------------------|
---------------------|-----------------------------------|


  TP        TP        TP          TP        TP        
  H         H         H           H         H         
-------------------------------|---------------------|
-------------------------------|---------------------|
-----------11--------12--------|--8--------10--------|
--9----------------------------|--8--------10--------|
-------------------------------|---------------------|
-------------------------------|---------------------|


   TP        TP    TP    TP    TP       TP        TP        TP        
   H         Q     Q     Q     Q        H         H         H         
------------------------------------|--------------------------------|
------------------------------------|--------------------------------|
------------15----14----15----------|------------14--------15--------|
--12--------------------------15----|--12----------------------------|
------------------------------------|--------------------------------|
------------------------------------|--------------------------------|


   TP        TP           TP        TP    TP    TP    TP    
   H         H            H         Q     Q     Q     Q     
----------------------|------------------------------------|
----------------------|------------------------------------|
--13--------11--------|------------15----14----15----------|
--13--------11--------|--12--------------------------15----|
----------------------|------------------------------------|
----------------------|------------------------------------|


   TP        TP        TP           TP        TP          
   H         H         H            H         H           
--------------------------------|-----------------------||
--------------------------------|-----------------------||
------------14--------15--------|--11--------13--------*||
--12----------------------------|--11--------13--------*||
--------------------------------|-----------------------||
--------------------------------|-----------------------||


   W                 W                 W                W                 
-------------------------------------------------------------------------|
-------------------------------------------------------------------------|
-------------------------------------------------------------------------|
--12-----------------L-----------------L----------------L----------------|
--12-----------------L-----------------L----------------L----------------|
--12-----------------L-----------------L----------------L----------------|


-------------------|-------------------||
-------------------|-------------------||
-------------------|-------------------||
-------------------|-------------------||
-------------------|-------------------||
-------------------|-------------------||




Duration Legend
---------------
W - whole
H - half
Q - quarter
E - 8th
S - 16th
T - 32nd
X - 64th
. - note dotted
|-n-|  - n-tuplets


Tablature Legend
----------------
L - tied note
x - dead note
g - grace note
(n) - ghost note
> - accentuded note
NH - natural harmonic
AH - artificial harmonic
TH - tapped harmonic
SH - semi harmonic
PH - pitch harmonic
h - hammer on
p - pull off
b - bend
br - bendRelease
pb - preBend
pbr - preBendRelease
brb - bendReleaseBend
\n/ - tremolo bar dip
\n - tremolo bar dive
-/n - tremolo bar Release up
/n\ - tremolo bar inverted dip
/n - tremolo bar return
-\n - tremolo bar Release down
S - shift slide
s - legato slide
/ -  slide into from below or out of upwards
\ -  slide into from above or out of downwards
~ - vibrato
W - wide vibrato
tr - trill
TP - tremolo picking
T - tapping
S - slap
P - pop
< - fade in
^ - brush up
v - brush down
Добавлено: 25.05.2012
Другие материалы по этой песне:

Страница создана 24.03.2012
http://primanota.ru/belphegor/shred-for-sathan-chords.htm
Привет, Гость.
Предлагаем пройти революционный курс по гитаре.
Подарок от PrimaNota.Ru, забирай!