PrimaNota.ru - самый крупный в мире бесплатный архив песенных текстов, аккордов, табулатур и нот


Belphegor - Hells Ambassador - таба, видео

Регистрация Запомнить меня
Войти через:  Facebook Google Twitter Vk Yandex Mail.ru

Belphegor - Hells Ambassador - таба, видео

Печатать
Просмотров: 205
Уроки эстрадного вокала в Санкт-Петербурге
                    Belphegor - Hell's Ambassador (working)

Tabbed by: Dark Prime
Contact: Forums at gorgoroth.info

This is a rough version of the first minute of the song. This file consists of two 
and I have not filled Track 1 before the 30 second mark.

Track 2 can be found below.

I would really appreciate help in finishing this, especially with advice on the 
etc.


                                                                       Belphegor
Track 1

D||-------|-------|-------|-------|-------|-------|-------|-------|-------|
A||-------|-------|-------|-------|-------|-------|-------|-------|-------|
F||-------|-------|-------|-------|-------|-------|-------|-------|-------|
C||-------|-------|-------|-------|-------|-------|-------|-------|-------|
G||-------|-------|-------|-------|-------|-------|-------|-------|-------|
C||-------|-------|-------|-------|-------|-------|-------|-------|-------|


                                                          TP   TP   TP   TP
                                                          Q    Q    Q    Q
-------|-------|-------|-------|-------|-------|-------|----------------------|
-------|-------|-------|-------|-------|-------|-------|----------------------|
-------|-------|-------|-------|-------|-------|-------|-----------------7----|
-------|-------|-------|-------|-------|-------|-------|--0----7----8---------|
-------|-------|-------|-------|-------|-------|-------|----------------------|
-------|-------|-------|-------|-------|-------|-------|----------------------|


  TP   TP   TP TP TP      TP   TP   TP   TP      TP   TP   TP   TP
  Q    Q    E  E  Q       Q    Q    Q    Q       Q    Q    Q    Q
-----------------------|----------------------|----------------------|
-----------------------|----------------------|----------------------|
--6--------------------|----------------------|--6-------------------|
-------8----7--8--7----|--0----5----7----8----|-------8----7----5----|
-----------------------|----------------------|----------------------|
-----------------------|----------------------|----------------------|


  E  E  E  E  H           E  E  E  E  E  E  Q       E  E  E  E  H
-----------------------|-------------------------|-----------------------|
-----------------------|-------------------------|-----------------------|
--6--------------------|-------------------------|--6--------------------|
-----7--8--5--7--------|--5--7--8--7--8--7--7----|-----7--8--5--7--------|
-----------------------|-------------------------|-----------------------|
-----------------------|-------------------------|-----------------------|


                          TP   TP   TP   TP      TP   TP   TP TP TP
  E  E  Q    Q    Q       Q    Q    Q    Q       Q    Q    E  E  Q
-----------------------|----------------------|-----------------------|
-----------------------|----------------------|-----------------------|
-----------------------|-----------------7----|--6--------------------|
--7--5--4----5----4----|--0----7----8---------|-------8----7--8--7----|
-----------------------|----------------------|-----------------------|
-----------------------|----------------------|-----------------------|


  TP   TP   TP   TP      TP   TP   TP   TP
  Q    Q    Q    Q       Q    Q    Q    Q       E  E  E  E  H
----------------------|----------------------|-----------------------|
----------------------|----------------------|-----------------------|
----------------------|--6-------------------|--6--------------------|
--0----5----7----8----|-------8----7----5----|-----7--8--5--7--------|
----------------------|----------------------|-----------------------|
----------------------|----------------------|-----------------------|


  E  E  E  E  E  E  Q       E  E  E  E  H           E  E  E  E  E  E  Q
-------------------------|-----------------------|-------------------------|
-------------------------|-----------------------|-------------------------|
-------------------------|--6--------------------|-------------------------|
--5--7--8--7--8--7--7----|-----7--8--5--7--------|--7--5--7--8--7--5--4----|
-------------------------|-----------------------|-------------------------|
-------------------------|-----------------------|-------------------------|


  TP TP TP TP TP TP TP TP    TP TP TP TP TP TP TP TP
  E  E  E  E  E  E  E  E     E  E  E  E  E  E  E  E
--------------------------|--------------------------|
--------------------------|--------------------------|
--------------6-----------|-----7--6-----6-----------|
--0--5--7--8-----8--7--5--|--0--------8-----8--7--5--|
--------------------------|--------------------------|
--------------------------|--------------------------|


  TP TP TP TP TP TP TP TP    TP TP TP TP TP TP TP TP
  E  E  E  E  E  E  E  E     E  E  E  E  E  E  E  E
--------------------------|--------------------------||
--------------------------|--------------------------||
--------------6-----------|-----7--6-----6-----------||
--0--5--7--8-----8--7--5--|--0--------8-----8--7--5--||
--------------------------|--------------------------||
--------------------------|--------------------------||

Track 2
                                           NH
     H        Q    Q        H.             Q       H        H
D||----------------------|----------------------|--------------------|
A||----------------------|----------------------|--------------------|
F||----------------------|----------------------|--------------------|
C||--0--------1----0s----|--4------------<>0----|--0--------1--------|
G||--0--------1----0s----|--4-------------------|--0--------1--------|
C||--0--------1----0s----|--4-------------------|--0--------1--------|


                                                             NH
  Q    Q    H           H        Q    Q       H.             Q
---------------------|---------------------|----------------------|
---------------------|---------------------|----------------------|
---------------------|---------------------|----------------------|
--0----1----0--------|--0--------8----0----|--7------------<>1----|
--0----1----0--------|--0--------8----0----|--7-------------------|
--0----1----0--------|--0--------8----0----|--7-------------------|


  H        H           Q    Q    H           H        Q    Q
--------------------|---------------------|----------------------|
--------------------|---------------------|----------------------|
--------------------|---------------------|----------------------|
--0--------8--------|--7----8----7--------|--0--------1----0s----|
--0--------8--------|--7----8----7--------|--0--------1----0s----|
--0--------8--------|--7----8----7--------|--0--------1----0s----|


                 NH
  H.             Q       H        H           Q    Q    H
----------------------|--------------------|---------------------|
----------------------|--------------------|---------------------|
----------------------|--------------------|---------------------|
--4------------<>0----|--0--------1--------|--0----1----0--------|
--4-------------------|--0--------1--------|--0----1----0--------|
--4-------------------|--0--------1--------|--0----1----0--------|


                                       NH
  H        Q    Q       H.             Q       H        H
---------------------|----------------------|--------------------|
---------------------|----------------------|--------------------|
---------------------|----------------------|--------------------|
--0--------8----0----|--7------------<>1----|--0--------8--------|
--0--------8----0----|--7-------------------|--0--------8--------|
--0--------8----0----|--7-------------------|--0--------8--------|


                        TP   TP   TP   TP      TP   TP   TP TP TP
  Q    Q    H           Q    Q    Q    Q       Q    Q    E  E  Q
---------------------|----------------------|-----------------------|
---------------------|----------------------|-----------------------|
---------------------|----------------------|-----------------------|
--7----8----7--------|-----------------5----|--4--------------------|
--7----8----7--------|-------5----6---------|-------6----5--6--5----|
--7----8----7--------|--0-------------------|-----------------------|


  TP   TP   TP   TP      TP   TP   TP   TP
  Q    Q    Q    Q       Q    Q    Q    Q       E  E  E  E  Q    Q
----------------------|----------------------|------------------------|
----------------------|----------------------|------------------------|
----------------------|----------------------|------------------------|
----------------------|--4-------------------|--0--0--0--0--1----0----|
-------3----5----6----|-------6----5----3----|--0--0--0--0--1----0----|
--0-------------------|----------------------|--0--0--0--0--1----0----|


  E  E  E  E  Q    Q       E  E  E  E  Q    Q       E  E  E  E  Q    Q
------------------------|------------------------|------------------------|
------------------------|------------------------|------------------------|
------------------------|------------------------|------------------------|
--0--0--0--0--4----0----|--0--0--0--0--1----0----|--0--0--0--0--4----0----|
--0--0--0--0--4----0----|--0--0--0--0--1----0----|--0--0--0--0--4----0----|
--0--0--0--0--4----0----|--0--0--0--0--1----0----|--0--0--0--0--4----0----|


  TP   TP   TP   TP      TP   TP   TP TP TP      TP   TP   TP   TP
  Q    Q    Q    Q       Q    Q    E  E  Q       Q    Q    Q    Q
----------------------|-----------------------|----------------------|
----------------------|-----------------------|----------------------|
----------------------|-----------------------|----------------------|
-----------------5----|--4--------------------|----------------------|
-------5----6---------|-------6----5--6--5----|-------3----5----6----|
--0-------------------|-----------------------|--0-------------------|


  TP   TP   TP   TP
  Q    Q    Q    Q       E  E  E  E  Q    Q       E  E  E  E  Q    Q
----------------------|------------------------|------------------------|
----------------------|------------------------|------------------------|
----------------------|------------------------|------------------------|
--4-------------------|--0--0--0--0--1----0----|--0--0--0--0--4----0----|
-------6----5----3----|--0--0--0--0--1----0----|--0--0--0--0--4----0----|
----------------------|--0--0--0--0--1----0----|--0--0--0--0--4----0----|


                                                    TP TP TP TP TP TP TP TP
  E  E  E  E  Q    Q       E  E  E  E  Q    Q       E  E  E  E  E  E  E  E
------------------------|------------------------|--------------------------|
------------------------|------------------------|--------------------------|
------------------------|------------------------|--------------------------|
--0--0--0--0--1----0----|--0--0--0--0--4----0----|--------------4-----------|
--0--0--0--0--1----0----|--0--0--0--0--4----0----|-----3--5--6-----6--5--3--|
--0--0--0--0--1----0----|--0--0--0--0--4----0----|--0-----------------------|


  TP TP TP TP TP TP TP TP    TP TP TP TP TP TP TP TP
  E  E  E  E  E  E  E  E     E  E  E  E  E  E  E  E
--------------------------|--------------------------|
--------------------------|--------------------------|
--------------------------|--------------------------|
-----5--4-----4-----------|--------------4-----------|
-----------6-----6--5--3--|-----3--5--6-----6--5--3--|
--0-----------------------|--0-----------------------|


  TP TP TP TP TP TP TP TP
  E  E  E  E  E  E  E  E
--------------------------||
--------------------------||
--------------------------||
-----5--4-----4-----------||
-----------6-----6--5--3--||
--0-----------------------||


Duration Legend
---------------
W - whole
H - half
Q - quarter
E - 8th
S - 16th
T - 32nd
X - 64th
. - note dotted
|-n-|  - n-tuplets


Tablature Legend
----------------
L - tied note
x - dead note
g - grace note
(n) - ghost note
> - accentuded note
NH - natural harmonic
AH - artificial harmonic
TH - tapped harmonic
SH - semi harmonic
PH - pitch harmonic
h - hammer on
p - pull off
b - bend
br - bendRelease
pb - preBend
pbr - preBendRelease
brb - bendReleaseBend
\n/ - tremolo bar dip
\n - tremolo bar dive
-/n - tremolo bar Release up
/n\ - tremolo bar inverted dip
/n - tremolo bar return
-\n - tremolo bar Release down
S - shift slide
s - legato slide
/ -  slide into from below or out of upwards
\ -  slide into from above or out of downwards
~ - vibrato
W - wide vibrato
tr - trill
TP - tremolo picking
T - tapping
S - slap
P - pop
< - fade in
^ - brush up
v - brush down
Добавлено: 03.03.2012
Другие материалы по этой песне:

Страница создана 03.03.2012
http://primanota.ru/belphegor/hells-ambassador-chords.htm
Привет, Гость.
Предлагаем пройти революционный курс по гитаре.
Подарок от PrimaNota.Ru, забирай!