PrimaNota.ru - самый крупный в мире бесплатный архив песенных текстов, аккордов, табулатур и нот


Beloved - Only Our Faces Hide - текст песни, бас-таба, видео

Регистрация Запомнить меня
Войти через:  Facebook Google Twitter Vk Yandex Mail.ru

Beloved - Only Our Faces Hide - текст песни, бас-таба, видео

Печатать
Просмотров: 188
Уроки эстрадного вокала в Санкт-Петербурге
Band: Beloved (us)
Song: Only Our Faces Hide
Album: Failure On
Tabbed by: choke383
Drop D Tuning: GDAD


G|----------|
D|----------|
A|----------|
D|33-0------|x4

G|---------|
D|---------|
A|---------|
D|3p0------|


0:12
G|--------------------------------|
D|--------------------------------|
A|00000000000000------------------|
D|--------------3333333333333333--|x4


0:34
G|------------------------|
D|------------------------|
A|------------------------|
D|0-00-000-00-000-00-3-3--|x8


0:56
G|------------------------------------------------------------------|
D|------------------------------------------------------------------|
A|00000000000000003333333333333333----------------11-1-111-1-11111--|
D|--------------------------------3333333333333333------------------|x3

G|---------------------------------------------------------------------------------|
D|---------------------------------------------------------------------------------|
A|00000000000000003333333333333333----------------11-1-111-1-11111111111111111111--|
D|--------------------------------3333333333333333---------------------------------|


1:44
G|--------|
D|--------|
A|--------|
D|0-0-00--|

1:47
G|------------------|
D|------------------|
A|------------------|
D|0000-000-000-000--|x7

G|------|
D|------|
A|------|
D|0000--|
(2:07)
G|------------------|
D|------------------|
A|---1---1---1-111--|
D|000-000-000-------|x5

G|--------------------|
D|--------------------|
A|---1---1---1-11111--|
D|000-000-000---------|


2:24
G|--------------------------------|
D|--------------------------------|
A|00000000000000------------------|
D|--------------3333333333333333--|x3

G|-----------------------|
D|-----------------------|
A|00000000000000---------|
D|--------------3333333--|


2:44
G|------------------|
D|------------------|
A|---1---1---1------|
D|000-000-000--000--|x5

G|--------------------|
D|--------------------|
A|---1---1---1--------|
D|000-000-000--00000--|


3:01
G|---------------------------------------------------------------------|
D|---------------------------------------------------------------------|
A|---------------------------------------------------------------------|
D|5555-555-555-555-3333-333-333-333-5555-555-555-555-7777-777-777-777--|x4

G|--------------------|
D|--------------------|
A|--------------------|
D|7~-------------7\0--|



Any comments, questions or jokes send to style444@hotmail.com
Добавлено: 22.05.2012
Другие материалы по этой песне:
  • Аккорды и текст

Страница создана 10.05.2012
http://primanota.ru/beloved/only-our-faces-hide-chords.htm
Привет, Гость.
Предлагаем пройти революционный курс по гитаре.
Подарок от PrimaNota.Ru, забирай!