PrimaNota.ru - самый крупный в мире бесплатный архив песенных текстов, аккордов, табулатур и нот


Beloved - Inner Pattern - текст песни, бас-таба, видео

Регистрация Запомнить меня
Войти через:  Facebook Google Twitter Vk Yandex Mail.ru

Beloved - Inner Pattern - текст песни, бас-таба, видео

Печатать
Просмотров: 176
Band: Beloved (us)
Song: Inner Pattern
Album: Failure On
Tabbed by: choke383
Drop D Tuning: GDAD


G|----------------------------------------------------|
D|----------------------------------------------------|
A|44444444---00000000---------------------------------|
D|----------------------66666666---444444444/7777777--|x6

G|----------|
D|----------|
A|44444444--|
D|----------|


1:06
G|-------------------------------------------------------------------------|
D|-------------------------------------------------------------------------|
A|-------------------------------------------------------------------------|
D|5555-5-5-555-5555-5555-5-5-555-5555-4444-4-4-444-4444-4444-4-4-444-4444--|

G|------------------------------------------------------------------------|
D|------------------------------------------------------------------------|
A|------------------------------------------------------0000000000000000--|
D|5555-5-5-555-5555-5555-5-5-555-5555-4444-4-4-444-4444-------------------|


1:30
G|-----------------------------------------|
D|-----------------------------------------|
A|0000-000---------------------------------|
D|-----------666--666---444444444/7777777--|

G|----------------------------------------------------|
D|----------------------------------------------------|
A|444--444---0000-000---------------------------------|
D|----------------------666--666---444444444/7777777--|


1:49
G|------------------------------------------------------------------------|
D|------------------------------------------------------------------------|
A|4--4/7--7-------4--4/7-------4--4/7--7-------4--4/7---------------------|
D|-----------0------------0---------------0------------0--00000000000000--|


2:15
G|------------------------------------------------------------------------------------|
D|------------------------------------------------------------------------------------|
A|------------------------------------------------------------------------------------|
D|4444-4-4-4-4-4444444-4444-4-4-4-4-4444444-4444-4-4-4-4-444--44-4444-4-4-4-4-444--44-|
2:31
G|------------------------------------------------------------------------------------|
D|------------------------------------------------------------------------------------|
A|------------------------------------------------------------------------------------|
D|4444-4-4-4-4-4444444-4444-4-4-4-4-4444444-4444-4-4-4-4-4444444-4444-4-4-4-4-4444444-|


2:43
G|------------------------------------------------------------------|
D|----------------2222222222222222----------------------------------|
A|2222222222222222----------------00000000000000000000000000000000--|
D|------------------------------------------------------------------|x3

G|------------------------------------------------------------------|
D|----------------2222222222222222----------------------------------|
A|xx2~222222222222----------------00000000000000000000000000000000--|
D|------------------------------------------------------------------|


3:29
G|----------------------------------------------------------------------------------|
D|----------------------------------------------------------------------------------|
A|----------------------------------------------------------------------------------|
D|0000-0-0-000-0000-0000-0-0-000-0000-0000-0-0-000-0000-0000-0-0-000-0000-0-0---0-0-|

G|---------------------------------------------------------------------|
D|---------------------------------------------------------------------|
A|---------------------------------------------------------------------|
D|---0-0---0-0000-0-0-000-0000-0000-0-0-000-0000-0-0---0-0----0-0---0--|


3:54
G|---------------------------------------------------------------|
D|---------------------------------------------------------------|
A|----------------2222222222222222----------------2222222222222--|
D|5555555555555555----------------5555555555555555---------------|

G|---------------------------------------------------------------|
D|---------------------------------------------------------------|
A|----------------2-22-2--2-22-2------------------2-22-2--2-222--|
D|5-55-5--5-55-5------------------5-55-5--5-55-5-----------------|

G|---------------------------------------------------------------|
D|---------------------------------------------------------------|
A|------------------------2-----------------------------2--------|
D|5--5-55-5--5-55-5--5-55---2-4-5--5-55-5--5-55-5--5-55---2-4-5--|x3

G|-------------------------------------------------------------|
D|-------------------------------------------------------------|
A|------------------------2-----------------------------2------|
D|5--5-55-5--5-55-5--5-55---2-4-5--5-55-5--5-55-5--5-55---2-4--|



Any comments, questions or jokes send to style444@hotmail.com
Добавлено: 06.06.2012
Другие материалы по этой песне:
  • Аккорды и текст

Страница создана 16.04.2012
http://primanota.ru/beloved/inner-pattern-chords.htm
Привет, Гость.
Предлагаем пройти революционный курс по гитаре.
Подарок от PrimaNota.Ru, забирай!