PrimaNota.ru - самый крупный в мире бесплатный архив песенных текстов, аккордов, табулатур и нот


Beloved - Failure On My Lips - текст песни, таба, бас-таба, видео

Регистрация Запомнить меня
Войти через:  Facebook Google Twitter Vk Yandex Mail.ru

Beloved - Failure On My Lips - текст песни, таба, бас-таба, видео

Печатать
Просмотров: 185
As recorded by Beloved
                        (From the 2004 Album FAILURE ON)

Words and Music by Beloved
Arranged by Beloved
Transcribed by Jonathan Rose

Gtr I (D A D G B E) - 'Gtr. Left'
Gtr II (D A D G B E) - 'Gtr. Right'
Gtr III (D A D G B E) - 'Gtr. Center'
Gtr IV (D A D G B E) - 'Pickscrape'

 Intro
  Dancefight Q=173
  E5
 4/4
  Gtr I
  Q  H.        +W           +W           +W
|------------|------------|------------|-----------------------------------|
|------------|------------|------------|-----------------------------------|
|-9--9-------|-(9)--------|-(9)--------|-(9)-------------------------------|
|-9--9-------|-(9)--------|-(9)--------|-(9)-------------------------------|
|-7--7-------|-(7)--------|-(7)--------|-(7)-------------------------------|
|------------|------------|------------|-----------------------------------|
|
| Gtr II                                 Gtr IV
|                                         TPTPTPTPTPTPTPTPTPTPTPTPTPTPTPTP
| Q  H.        +W           +W            S S S S S S S S S S S S S S S S
|------------|------------|------------|-----------------------------------|
|------------|------------|------------|-----------------------------------|
|------------|------------|------------|-----------------------------------|
|-2--2-------|-(2)--------|-(2)--------|-----------------------------------|
|-2--2-------|-(2)--------|-(2)--------|--xSxSxSxSxSxSxSxSxSxSxSxSxSxSxSx\-|
|-2--2-------|-(2)--------|-(2)--------|--xSxSxSxSxSxSxSxSxSxSxSxSxSxSxSx\-|


    E5        (B/E)      E5
    Gtr I
    E E E q    E E E   E q   E E q      E
||-------------------|--------------------|
||o------------------|--------------------|
||--9-9-x-9------9---|-8------------------|
||--9-9-x-9--------9-|---2-----2-2--------|
||o-7-7-x-7---/7-----|---2-----2-2--------|
||-------------------|---2-----2-2--------|
|
|   Gtr II
|   E E E q    E E E   E E E E E E  Q
||-------------------|--------------------|
||o------------------|-------9---9-(9)\---|
||---------------9---|-8------------------|
||--2-2-x-2--------9-|---9----------------|
||o-2-2-x-2---/7-----|-----7---7----7-----|
||--2-2-x-2----------|--------------------|
|
|   Gtr III
|   H       E  E E E   E E E E E E  E   E
||-------------------|---0---0---0------0-|
||o--------------5---|-4---4---4----4-----|
||-----------------4-|--------------------|
||------------/2-----|--------------------|
||o------------------|--------------------|
||-------------------|--------------------|


  E5        (B/E)      E5
  E E E q    E E E   E q   E E q      E   4x
|------------------|----------------------||
|------------------|---------------------o||
|-9-9-x-9------9---|-8--------------------||
|-9-9-x-9--------9-|---2-----2-2----------||
|-7-7-x-7---/7-----|---2-----2-2---------o||
|------------------|---2-----2-2----------||
|
| E E E q    E E E   E E E E E E  Q       4x
|------------------|----------------------||
|------------------|-------9---9-(9)\----o||
|--------------9---|-8--------------------||
|-2-2-x-2--------9-|---9------------------||
|-2-2-x-2---/7-----|-----7---7----7------o||
|-2-2-x-2----------|----------------------||
|
| H       E  E E E   E E E E E E  E   E   4x
|------------------|---0---0---0------0---||
|--------------5---|-4---4---4----4------o||
|----------------4-|----------------------||
|-----------/2-----|----------------------||
|------------------|---------------------o||
|------------------|----------------------||


   "Under an eclipse.."
    A5                                  N.C.
                                        PM---
    E q    E   E q   E    E  q    E E E E E
||---------------------|--------------------|
||o--------------------|--------------------|
||---------------------|--------------------|
||--7-7----7---7-7---7-|--7--7----7-7-7-----|
||o-7-7----7---7-7---7-|--7--7----7-7-7-----|
||--7-7----7---7-7---7-|--7--7----7-7-7-7-7-|
|
|       PM---------|              PM------|
|   Q   E  E   E E E E   +E  E E  E E E E E
||---------------------|--------------------|
||o------------------8-|-(8)----------------|
||--5---5--5---5-5-5-5-|-(5)---5--5-5-5-5-5-|
||--7---7--7---7-7-7---|-----7----7-7-7-7-7-|
||o--------------------|--------------------|
||---------------------|--------------------|
|
|   Q   E +H         E   +E  E H.
||---------------------|--------------------|
||o--------------------|--------------------|
||---------------------|--------------------|
||--7---7-(7)\-------7-|-(7)-7-7\-----------|
||o-7---7-(7)\-------7-|-(7)-7-7\-----------|
||--7---7-(7)\-------7-|-(7)-7-7\-----------|


  (G5)              (G)
 -----|     PM------------|     PM--|
  E E E Q   E E E    E  E E Q   E E E
|-----------------|--------------------|
|-----------------|--------------------|
|-------7---------|--------------------|
|---5-------5---5-|-----5---9---5---5--|
|-----5-------5---|-------5-------5----|
|-5---------------|--5-----------------|
|
|     PM------|             PM------|
| Q   E E E E E E   +E  E E E E E E E
|-----------------|--------------------|
|---------------8-|-(8)----------------|
|-5---5-5-5-5-5-5-|-(5)---5-5-5-5-5-5--|
|-5---5-5-5-5-5---|-----5---5-5-5-5-5--|
|-----------------|--------------------|
|-----------------|--------------------|
|
| W                  W
|-----------------|--------------------|
|-----------------|--------------------|
|-----------------|--------------------|
|-----------------|--------------------|
|-----------------|--------------------|
|-----------------|--------------------|


  1.
  A5
  Q  E +H         E   +E  E H.
|-------------------|--------------------|
|-------------------|--------------------|
|-------------------|--------------------|
|-7--7-(7)\-------7-|-(7)-7-7\-----------|
|-7--7-(7)\-------7-|-(7)-7-7\-----------|
|-7--7-(7)\-------7-|-(7)-7-7\-----------|
|
|    PM---------|              PM------|
| Q  E  E   E E E E   +E  E E  E E E E E
|-------------------|--------------------|
|-----------------8-|-(8)----------------|
|-5--5--5---5-5-5-5-|-(5)---5--5-5-5-5-5-|
|-7--7--7---7-7-7---|-----7----7-7-7-7-7-|
|-------------------|--------------------|
|-------------------|--------------------|
|
| Q  E +H         E   +E  E H.
|-------------------|--------------------|
|-------------------|--------------------|
|-------------------|--------------------|
|-7--7-(7)\-------7-|-(7)-7-7\-----------|
|-7--7-(7)\-------7-|-(7)-7-7\-----------|
|-7--7-(7)\-------7-|-(7)-7-7\-----------|


  (G5)              (G)
  PM--|     PM------------|     PM--|
  E E E Q   E E E    E  E E Q   E E E
|-----------------|--------------------||
|-----------------|---------8---------o||
|-------7---------|--------------------||
|---5-------5---5-|-----5-------5---5--||
|-----5-------5---|-------5-------5---o||
|-5---------------|--5-----------------||
|
|     PM------|             PM------|
| Q   E E E E E E   +E  E E E E E E E
|-----------------|--------------------||
|---------------8-|-(8)---------------o||
|-5---5-5-5-5-5-5-|-(5)---5-5-5-5-5-5--||
|-5---5-5-5-5-5---|-----5---5-5-5-5-5--||
|-----------------|-------------------o||
|-----------------|--------------------||
|
| W                  W
|-----------------|--------------------||
|-----------------|-------------------o||
|-----------------|--------------------||
|-----------------|--------------------||
|-----------------|-------------------o||
|-----------------|--------------------||


  2.
  A5                                       (G5)              G5        F5
                                           PM--|     PM--|
  Q  E +H         E   +E  E H.             E E E Q   E E E   E E E E E E Q
|-------------------|--------------------|-----------------|----------------||
|-------------------|--------------------|-----------------|----------------||
|-------------------|--------------------|-------7---------|----------------||
|-7--7-(7)\-------7-|-(7)-7-7\-----------|---5-------5---5-|-5-5-5-5-5-3----||
|-7--7-(7)\-------7-|-(7)-7-7\-----------|-----5-------5---|-5-5-5-5-5-3----||
|-7--7-(7)\-------7-|-(7)-7-7\-----------|-5---------------|-5-5-5-5-5-3----||
|
|    PM---------|              PM------|       PM--------|
| Q  E  E   E E E E   +E  E E  E E E E E   Q   E E E E E E   E E E E E E Q
|-------------------|--------------------|-----------------|----------------||
|-----------------8-|-(8)----------------|-----------------|----------------||
|-5--5--5---5-5-5-5-|-(5)---5--5-5-5-5-5-|-5---5-5-5-5-5-5-|-5-5-5-5-5-4----||
|-7--7--7---7-7-7---|-----7----7-7-7-7-7-|-5---5-5-5-5-5-5-|-5-5-5-5-5-5----||
|-------------------|--------------------|-----------------|----------------||
|-------------------|--------------------|-----------------|----------------||
|
| Q  E +H         E   +E  E H.             W                 W
|-------------------|--------------------|-----------------|----------------||
|-------------------|--------------------|-----------------|----------------||
|-------------------|--------------------|-----------------|----------------||
|-7--7-(7)\-------7-|-(7)-7-7\-----------|-----------------|----------------||
|-7--7-(7)\-------7-|-(7)-7-7\-----------|-----------------|----------------||
|-7--7-(7)\-------7-|-(7)-7-7\-----------|-----------------|----------------||


   "If this is a crutch.."
    (Em)                (Em7)
    E E  E E E E  E E    E  E  E  E  E  E  E  E
||--------------------|-------------------------|
||o-------------------|-------------------------|
||--9p0-12p0-9p0-12p0-|--9p=0-12p=0--9p=0-12p=0-|
||--------------------|-------------------------|
||o-------------------|-------------------------|
||--------------------|-------------------------|
|
|   E E  E E E E  E E    E  E  E  E  E  E  E  E
||--------------------|-------------------------|
||o-------------------|-------------------------|
||--9-9--9-9-9-9--9-9-|-12-12-12-12-12-12-12-12-|
||--x-x--x-x-x-x--x-x-|--x--x--x--x--x--x--x--x-|
||o-7-7--7-7-7-7--7-7-|-10-10-10-10-10-10-10-10-|
||--------------------|-------------------------|
|
|   E E  E Q   E  E E    E  E  E  Q     E  E  E
||---------7----------|----------10-------------|
||o---8--------8----8-|-----8-----------8-----8-|
||--9----9--------9---|--9-----9-----------9----|
||--------------------|-------------------------|
||o-------------------|-------------------------|
||--------------------|-------------------------|


  (Emadd11)            (C)       (Bsus4)
  E E  E  E E E  E E    E E  E E E E  E E   4x
|--------------------|----------------------||
|--------------------|---------------------o||
|-7p0-12p=0-7p0-12p0-|--5p0-12p0-4p0-12p0---||
|--------------------|----------------------||
|--------------------|---------------------o||
|--------------------|----------------------||
|
| E E  E  E E E  E E    E E  E E E E  E E   4x
|--------------------|----------------------||
|--------------------|---------------------o||
|-7-7--7--7-7-7--7-7-|--5-5--5-5-4-4--4-4---||
|-x-x--x--x-x-x--x-x-|--x-x--x-x-x-x--x-x---||
|-5-5--5--5-5-5--5-5-|--3-3--3-3-2-2--2-2--o||
|--------------------|----------------------||
|
| E E  E  Q   E  E E    E E  E E E E  E E   4x
|--------------------|----------------------||
|---8----10---8----8-|-------8--------7----o||
|-9----9---------9---|----9----9---9----9---||
|--------------------|-10--------9----------||
|--------------------|---------------------o||
|--------------------|----------------------||


   "Tasting the failure on.."
    (Em)                (Em7)
    E E  E E E E  E E    E E  E  E  E E  E E
||--------------------|----------------------|
||o-------------------|----------------------|
||--9p0-12p0-9p0-12p0-|--9p0-12p=0--9p0-12p0-|
||--------------------|----------------------|
||o-------------------|----------------------|
||--------------------|----------------------|
|
|   Q    Q   Q    Q      Q    Q     Q    Q
||--------------------|----------------------|
||o-------------------|----------------------|
||--9----9---9----9---|-12---12----12---12---|
||--x----x---x----x---|--x----x-----x----x---|
||o-7----7---7----7---|-10---10----10---10---|
||--------------------|----------------------|
|
|   E E  E Q   E  E E    E E  E  Q    E  E E
||---------7----------|---------10-----------|
||o---8--------8----8-|----8----------8----8-|
||--9----9--------9---|--9----9----------9---|
||--------------------|----------------------|
||o-------------------|----------------------|
||--------------------|----------------------|


  (Emadd11)            (C)       (Bsus4)
  E E  E  E E E  E E    E E  E E E E  E E   4x
|--------------------|----------------------||
|--------------------|---------------------o||
|-7p0-12p=0-7p0-12p0-|--5p0-12p0-4p0-12p0---||
|--------------------|----------------------||
|--------------------|---------------------o||
|--------------------|----------------------||
|
| Q    Q    Q    Q      Q    Q   Q    Q     4x
|--------------------|----------------------||
|--------------------|---------------------o||
|-7----7----7----7---|--5----5---4----4-----||
|-x----x----x----x---|--x----x---x----x-----||
|-5----5----5----5---|--3----3---2----2----o||
|--------------------|----------------------||
|
| E E  E  Q   E  E E    E E  E E E E  E E   4x
|--------------------|----------------------||
|---8----10---8----8-|-------8--------7----o||
|-9----9---------9---|----9----9---9----9---||
|--------------------|-10--------9----------||
|--------------------|---------------------o||
|--------------------|----------------------||


   *Breakdown*
    E5
    Gtr I
    E   E    E E E E  E   E     E E  E E E   E    E E
||----------------------------|-----------------------|
||o---------------------------|-----------------------|
||--9p==0---12p0-9p0-12p==0---|-9p0-12p0-9p==0---12p0-|
||----------------------------|-----------------------|
||o---------------------------|-----------------------|
||----------------------------|-----------------------|
|
|   Gtrs II, III
|   PM------|      PM-----------|      PM--------|
|   S S S S  e Q   E  S S S S   e Q    E S S S S  e E
||----------------------------|-----------------------|
||o---------------------------|-----------------------|
||----------------------------|-----------------------|
||----------------------------|-----------------------|
||o-2-2-2-2--2-----2--2-2-2-2-|-2------2-2-2-2-2--2---|
||--2-2-2-2--2-----2--2-2-2-2-|-2------2-2-2-2-2--2---|


  E   E    E E E E  E   E     E E  E E E   E    E E
|---------------------------|---------------------------||
|---------------------------|--------------------------o||
|-7p==0---12p0-7p0-12p==0---|-5p0-12p0-4p==0---12p0-----||
|---------------------------|---------------------------||
|---------------------------|--------------------------o||
|---------------------------|---------------------------||
|
| PM------|      PM-----------|      PM--------|
| S S S S  e Q   E  S S S S   e Q    E S S S S  e E
|---------------------------|---------------------------||
|---------------------------|--------------------------o||
|---------------------------|---------------------------||
|---------------------------|---------------------------||
|-2-2-2-2--2-----2--2-2-2-2-|-2------2-2-2-2-2--2------o||
|-2-2-2-2--2-----2--2-2-2-2-|-2------2-2-2-2-2--2-------||


   "And this is my last.."
    E5
    E   E    E E E E  E   E     E E  E E E   E    E E
||----------------------------|-----------------------|
||o---------------------------|-----------------------|
||--9p==0---12p0-9p0-12p==0---|-9p0-12p0-9p==0---12p0-|
||----------------------------|-----------------------|
||o---------------------------|-----------------------|
||----------------------------|-----------------------|
|
|   PM------|      PM-----------|      PM--------|
|   S S S S  e Q   E  S S S S   e Q    E S S S S  e E
||----------------------------|-----------------------|
||o---------------------------|-----------------------|
||----------------------------|-----------------------|
||----------------------------|-----------------------|
||o-2-2-2-2--2-----2--2-2-2-2-|-2------2-2-2-2-2--2---|
||--2-2-2-2--2-----2--2-2-2-2-|-2------2-2-2-2-2--2---|


  E   E    E E E E  E   E     E E  E E E   E    E E
|---------------------------|---------------------------||
|---------------------------|--------------------------o||
|-7p==0---12p0-7p0-12p==0---|-5p0-12p0-4p==0---12p0-----||
|---------------------------|---------------------------||
|---------------------------|--------------------------o||
|---------------------------|---------------------------||
|
| PM------|      PM-----------|      PM--------|
| S S S S  e Q   E  S S S S   e Q    E S S S S  e E
|---------------------------|---------------------------||
|---------------------------|--------------------------o||
|---------------------------|---------------------------||
|---------------------------|---------------------------||
|-2-2-2-2--2-----2--2-2-2-2-|-2------2-2-2-2-2--2------o||
|-2-2-2-2--2-----2--2-2-2-2-|-2------2-2-2-2-2--2-------||


   "We're so vain.."
    (Em)              (Em7)
    Gtr I
    PM--|     PM-----------|        PM------
    E E E Q   E E E    E E  E  Q    E  E E
||------------------|----------------------|
||o-----------------|----------------------|
||--------7---------|----------------------|
||----5-------5---5-|----5-----9----5----5-|
||o-----5-------5---|-------5----------5---|
||--5---------------|--5-------------------|
|
|   Gtr II
|   Q   Q   Q   Q      Q    Q     Q    Q
||------------------|----------------------|
||o-----------------|----------------------|
||--9---9---9---9---|-12---12----12---12---|
||--x---x---x---x---|--x----x-----x----x---|
||o-7---7---7---7---|-10---10----10---10---|
||------------------|----------------------|
|
|   Gtr III
|   E E E Q   E E E    E E  E  Q    E  E E
||--------7---------|---------10-----------|
||o---8-------8---8-|----8----------8----8-|
||--9---9-------9---|--9----9----------9---|
||------------------|----------------------|
||o-----------------|----------------------|
||------------------|----------------------|


  (Emadd11)          (C)      (Bsus4)
 -----|      PM-----------------|   PM
  E E E  Q   E E E    E E E E E E E E   4x
|------------------|--------------------||
|------------------|-------------------o||
|--------7---------|--------------7-----||
|---5--------5---5-|------9-5-------5---||
|-----5--------5---|----5-------5------o||
|-5----------------|--5-------5---------||
|
| Q   Q    Q   Q      Q   Q   Q   Q     4x
|------------------|--------------------||
|------------------|-------------------o||
|-7---7----7---7---|--5---5---4---4-----||
|-x---x----x---x---|--x---x---x---x-----||
|-5---5----5---5---|--3---3---2---2----o||
|------------------|--------------------||
|
| E E E  Q   E E E    E E E E E E E E   4x
|------------------|--------------------||
|---8---10---8---8-|------8-------7----o||
|-9---9--------9---|----9---9---9---9---||
|------------------|-10-------9---------||
|------------------|-------------------o||
|------------------|--------------------||


 "This is the end of.."
  A5 BbA5   D5F5        D5    Bb5 A5 F5
                        PM--|
   E E Q  E E Q    +E   E E E  E. E.  E
|----------------|----------------------|
|----------------|----------------------|
|----------------|----------------------|
|----------------|----------------------|
|--7-8-7----0-3--|-(3)/-0-0-0--8--7---3-|
|--7-8-7----0-3--|-(3)/-0-0-0--8--7---3-|
|
|  PM                   PM--|
|  E E Q  H         E   E E E  E. E.  E
|----------------|----------------------|
|----------------|----------------------|
|-10-------------|----------------------|
|----x-x---------|----------------------|
|----------------|------0-0-0--8--7---3-|
|----------------|------0-0-0--8--7---3-|
|
|                       PM--|
|  W                E   E E E  E. E.  E
|----------------|----------------------|
|----------------|----------------------|
|----------------|------------10--9-----|
|----------------|-------------------10-|
|----------------|------0-0-0-----------|
|----------------|------0-0-0-----------|


  A5 Bb5A5   D5F5          D5    Bb5 A5 F5
                           PM--|
   E  E Q  E E  Q     +E   E E E  E. E.  E
|------------------|-----------------------|
|------------------|-----------------------|
|------------------|-----------------------|
|------------------|-----------------------|
|-/7--8-7----0--3--|--(3)/-0-0-0--8--7---3-|
|-/7--8-7----0--3--|--(3)/-0-0-0--8--7---3-|
|
|                          PM--|
|  E  E Q  E E  Q     +E   E E E  E. E.  E
|------------------|-----------------------|
|------------------|-----------------------|
|------------------|-----------------------|
|------------------|-----------------------|
|-/7--8-7----0--3--|--(3)/-0-0-0--8--7---3-|
|-/7--8-7----0--3--|--(3)/-0-0-0--8--7---3-|
|
|                          PM--|
|  E  E Q  E E  Q     +E   E E E  E. E.  E
|------------------|-----------------------|
|------------------|-----------------------|
|-/9-10-9----------|-------------10--9-----|
|------------7-10--|-(10)/--------------10-|
|------------------|-------0-0-0-----------|
|------------------|-------0-0-0-----------|


    A5 Bb5A5   D5F5          D5    Bb5 A5 F5
    Gtrs I, II
                             PM--|
     E  E Q  E E  Q     +E   E E E  E. E.  E
||-------------------|-----------------------|
||o------------------|-----------------------|
||-------------------|-----------------------|
||-------------------|-----------------------|
||o-/7--8-7----0--3--|--(3)/-0-0-0--8--7---3-|
||--/7--8-7----0--3--|--(3)/-0-0-0--8--7---3-|
|
|   Gtr III
|                            PM--|
|    E  E Q  E E  Q     +E   E E E  E. E.  E
||-------------------|-----------------------|
||o------------------|-----------------------|
||--/9-10-9----------|-------------10--9-----|
||-------------7-10--|-(10)/--------------10-|
||o------------------|-------0-0-0-----------|
||-------------------|-------0-0-0-----------|


  A5 Bb5A5   D5F5          D5    Bb5 A5 F5
                           PM--|
   E  E Q  E E  Q     +E   E E E  E. E.  E   3x
|------------------|-------------------------||
|------------------|------------------------o||
|------------------|-------------------------||
|------------------|-------------------------||
|-/7--8-7----0--3--|--(3)/-0-0-0--8--7---3--o||
|-/7--8-7----0--3--|--(3)/-0-0-0--8--7---3---||
|
|                          PM--|
|  E  E Q  E E  Q     +E   E E E  E. E.  E   3x
|------------------|-------------------------||
|------------------|------------------------o||
|-/9-10-9----------|-------------10--9-------||
|------------7-10--|-(10)/--------------10---||
|------------------|-------0-0-0------------o||
|------------------|-------0-0-0-------------||


  A5 Bb5A5   D5F5          D5    Bb5 A5   F5
  Gtr I
                           PM--|
   E  E Q  E E  Q     +E   E E E  Q  Q     W
|------------------|--------------------|-------||
|------------------|--------------------|-------||
|------------------|--------------------|-10----||
|------------------|--------------------|--x----||
|-/7--8-7----0--3--|--(3)/-0-0-0--8--7--|--8----||
|-/7--8-7----0--3--|--(3)/-0-0-0--8--7--|-------||
|
| Gtr II
|                          PM--|
|  E  E Q  E E  Q     +E   E E E  Q  Q     W
|------------------|--------------------|-------||
|------------------|--------------------|-------||
|------------------|--------------------|-------||
|------------------|--------------------|-------||
|-/7--8-7----0--3--|--(3)/-0-0-0--8--7--|--3----||
|-/7--8-7----0--3--|--(3)/-0-0-0--8--7--|--3----||
|
| Gtr III
|                          PM--|
|  E  E Q  E E  Q     +E   E E E  Q  Q     W
|------------------|--------------------|-------||
|------------------|--------------------|-------||
|-/9-10-9----------|-------------10--9--|-------||
|------------7-10--|-(10)/--------------|-10----||
|------------------|-------0-0-0--------|-------||
|------------------|-------0-0-0--------|-------||


   "This goes far beyond.."
    N.C.
    Gtr I
                                            ~~~~~~~~~~~~~
     Q   E  +E      E  E  E  E    +E   Q    H        +E
||------10-(10)b11r10----------|------13-----------------|
||o-------------------11-10----|-------------------------|
||--10----------------------10-|-(10)------10-------(10)-|
||-----------------------------|-------------------------|
||o----------------------------|-------------------------|
||-----------------------------|-------------------------|
|
|   Gtr II
|    Q   E   E      E  E  E  E    +E   E E  E E E E   E
||-----------------------------|-------------------------|
||o----------------------------|-------------------------|
||---5---5---5------5--5--5--5-|--(5)--5-5--5-5-5-5---5--|
||---x---x---x------x--x--x--x-|--(x)--x-x--x-x-x-x---x--|
||o--3---3---3------3--3--3--3-|--(3)--3-3--3-3-3-3---3--|
||-----------------------------|-------------------------|


                                  ~~~~~~~~~~~~~
  Q   E  E E  E E  E    +E   Q    H        +E
|--------------------|--------------------------|
|----11-10-8------13-|-(13)-11---10-------(10)--|
|-7----------10-9----|--------------------------|
|--------------------|--------------------------|
|--------------------|--------------------------|
|--------------------|--------------------------|
|
| Q   E  E E  E E  E    +E   E E  E E E E   E
|--------------------|--------------------------|
|--------------------|--------------------------|
|-7---7--7-7--7-7--7-|--(7)--7-7--7-7-7-7---7---|
|-x---x--x-x--x-x--x-|--(x)--x-x--x-x-x-x---x---|
|-5---5--5-5--5-5--5-|--(5)--5-5--5-5-5-5---5---|
|--------------------|--------------------------|


  N.C.
          PM    PM|       PM   PM ~~
   Q   E  E  E  E  E E    E  E E  H         +E
|--------------------8-|------------------------|
|-----11----10---------|-----8---10--------(10)-|
|--7------7-----7--7---|--7----7----------------|
|----------------------|------------------------|
|----------------------|------------------------|
|----------------------|------------------------|
|
|  Q   E  E  E  E  E E   +E  E E  E E E  E   E
|----------------------|------------------------|
|----------------------|------------------------|
|-10--10-10-10-10-10-9-|-(9)-9-9--9-9-9-10--10--|
|--x---x--x--x--x--x-x-|-(x)-x-x--x-x-x--x---x--|
|--8---8--8--8--8--8-8-|-(8)-8-8--8-8-8--8---8--|
|----------------------|------------------------|


                                       ~~~~~~~~~~~~~~~
  S +S   E  E E E E E  E    +E   Q     H          +E    4x
|------------------------|------------------------------||
|------------------------|-----------------------------o||
|-7-(7)s10-10-9-9-5-5----|-------7-----7----------(7)---||
|----------------------7-|--(7)-------------------------||
|------------------------|-----------------------------o||
|------------------------|------------------------------||
|
| Q         E E E E E  E    +E   E  E  E  E  E  E  E    4x
|------------------------|------------------------------||
|------------------------|-----------------------------o||
|-7---------7-7-7-7-7-14-|-(14)-14-14-14-14-14-14-14----||
|-x---------x-x-x-x-x--x-|--(x)--x--x--x--x--x--x--x----||
|-5---------5-5-5-5-5-12-|-(12)-12-12-12-12-12-12-12---o||
|------------------------|------------------------------||


  N.C.
                                         ~~~~~~~~~~~
   Q   E  +E      E  E  E  E    +E   Q   H      +E
|-----10-(10)b11r10----------|------13--------------|
|-------------------11-10----|----------------------|
|-10----------------------10-|-(10)-----10-----(10)-|
|----------------------------|----------------------|
|----------------------------|----------------------|
|----------------------------|----------------------|
|
|  H              H              H         H
|----------------------------|----------------------|
|----------------------------|----------------------|
|--5--------------5----------|---5---------5--------|
|--x--------------x----------|---x---------x--------|
|--3--------------3----------|---3---------3--------|
|----------------------------|----------------------|


                                 ~~~~~~~~~~~
  Q   E  E E  E E  E    +E   Q   H      +E
|--------------------|----------------------|
|----11-10-8------13-|-(13)-11--10-----(10)-|
|-7----------10-9----|----------------------|
|--------------------|----------------------|
|--------------------|----------------------|
|--------------------|----------------------|
|
| H        H             H         H
|--------------------|----------------------|
|--------------------|----------------------|
|-7--------7---------|---7---------7--------|
|-x--------x---------|---x---------x--------|
|-5--------5---------|---5---------5--------|
|--------------------|----------------------|


  N.C.
         PM   PM|     PM  PM ~~~~~~~~~~~
   Q   E E  E E E E   E E E  H      +E
|-----------------8-|-------------------|
|-----11---10-------|---8---10-----(10)-|
|--7-----7----7-7---|-7---7-------------|
|-------------------|-------------------|
|-------------------|-------------------|
|-------------------|-------------------|
|
|  H        H         H        H
|-------------------|-------------------|
|-------------------|-------------------|
|-10-------10-------|-9--------9--------|
|--x--------x-------|-x--------x--------|
|--8--------8-------|-8--------8--------|
|-------------------|-------------------|


                                        ~~~~~~~~~~~~~~~
  S +S   E  E E E  E E  E    +E   Q     H          +E
|-------------------------|-----------------------------|
|-------------------------|-----------------------------|
|-7-(7)s10-10-9-9--5-5----|-------7-----7----------(7)--|
|-----------------------7-|--(7)------------------------|
|-------------------------|-----------------------------|
|-------------------------|-----------------------------|
|
| Q         E E Q.      E    +E   E  E  E  E  E  Q
|-------------------------|-----------------------------|
|-------------------------|-----------------------------|
|-7---------7-7-7------14-|-(14)-14-14-14-14-14-14------|
|-x---------x-x-x-------x-|--(x)--x--x--x--x--x--x------|
|-5---------5-5-5------12-|-(12)-12-12-12-12-12-12------|
|-------------------------|-----------------------------|


  N.C.
                                          ~~~~~~~~~~~~~
   Q   E  +E      E  E  E  E    +E   Q    H        +E
|-----10-(10)b11r10----------|------13-----------------|
|-------------------11-10----|-------------------------|
|-10----------------------10-|-(10)------10-------(10)-|
|----------------------------|-------------------------|
|----------------------------|-------------------------|
|----------------------------|-------------------------|
|
|  Q   E   E      E  E  E  E    +E   E E  E E E E   E
|----------------------------|-------------------------|
|----------------------------|-------------------------|
|--5---5---5------5--5--5--5-|--(5)--5-5--5-5-5-5---5--|
|--x---x---x------x--x--x--x-|--(x)--x-x--x-x-x-x---x--|
|--3---3---3------3--3--3--3-|--(3)--3-3--3-3-3-3---3--|
|----------------------------|-------------------------|


                                  ~~~~~~~~~~~~~
  Q   E  E E  E E  E    +E   Q    H        +E
|--------------------|-------------------------|
|----11-10-8------13-|-(13)-11---10-------(10)-|
|-7----------10-9----|-------------------------|
|--------------------|-------------------------|
|--------------------|-------------------------|
|--------------------|-------------------------|
|
| Q   E  E E  E E  E    +E   E E  E E E E   E
|--------------------|-------------------------|
|--------------------|-------------------------|
|-7---7--7-7--7-7--7-|--(7)--7-7--7-7-7-7---7--|
|-x---x--x-x--x-x--x-|--(x)--x-x--x-x-x-x---x--|
|-5---5--5-5--5-5--5-|--(5)--5-5--5-5-5-5---5--|
|--------------------|-------------------------|


  N.C.
          PM    PM|       PM   PM ~~~~~~~~~~~~~~
   Q   E  E  E  E  E E    E  E E  H         +E
|--------------------8-|------------------------|
|-----11----10---------|-----8---10--------(10)-|
|--7------7-----7--7---|--7----7----------------|
|----------------------|------------------------|
|----------------------|------------------------|
|----------------------|------------------------|
|
|  Q   E  E  E  E  E E   +E  E E  E E E  E   E
|----------------------|------------------------|
|----------------------|------------------------|
|-10--10-10-10-10-10-9-|-(9)-9-9--9-9-9-10--10--|
|--x---x--x--x--x--x-x-|-(x)-x-x--x-x-x--x---x--|
|--8---8--8--8--8--8-8-|-(8)-8-8--8-8-8--8---8--|
|----------------------|------------------------|


                                       ~~~~~~~~~~~~~~~
  S +S   E  E E E E E  E    +E   Q     H          +E
|------------------------|-----------------------------||
|------------------------|-----------------------------||
|-7-(7)s10-10-9-9-5-5----|-------7-----7----------(7)--||
|----------------------7-|--(7)------------------------||
|------------------------|-----------------------------||
|------------------------|-----------------------------||
|
| Q         E E E E E  E    +E   E  E  E  E  E  E  E
|------------------------|-----------------------------||
|------------------------|-----------------------------||
|-7---------7-7-7-7-7-14-|-(14)-14-14-14-14-14-14-14---||
|-x---------x-x-x-x-x--x-|--(x)--x--x--x--x--x--x--x---||
|-5---------5-5-5-5-5-12-|-(12)-12-12-12-12-12-12-12---||
|------------------------|-----------------------------||


   Interlude
    (Dm7)         (F5/E)
    Gtr I
                                         ~~~~~~~~~
    S +S   E   E   E  E E E  E    +E  Q  H    +E
||------------------------------|-----------------|
||o-----------------------------|-----------------|
||--7-(7)s10--10---9--9-5-5-----|-----7--7----(7)-|
||---------------------------7--|-(7)-------------|
||o-----------------------------|-----------------|
||------------------------------|-----------------|
|
|   Gtr III
|   E      E   E   H        +E    +W
||---------8--(8)-(8)-------(8)-|-(8)-------------|
||o------------6--(6)-------(6)-|-(6)-------------|
||--7-----(7)-(7)--9--------(9)-|-(9)-------------|
||------------------------------|-----------------|
||o-----------------------------|-----------------|
||------------------------------|-----------------|


  (Dm7)         (F5/E)
                                       ~~~~~~~~~
  S +S   E   E   E  E E E  E    +E  Q  H    +E
|-----------------------------|-------------------||
|-----------------------------|------------------o||
|-7-(7)s10--10---9--9-5-5-----|-----7--7----(7)---||
|--------------------------7--|-(7)---------------||
|-----------------------------|------------------o||
|-----------------------------|-------------------||
|
| E      E   E   H        +E    +W
|--------8--(8)-(8)-------(8)-|-(8)---------------||
|------------6--(6)-------(6)-|-(6)--------------o||
|-7-----(7)-(7)--9--------(9)-|-(9)---------------||
|-----------------------------|-------------------||
|-----------------------------|------------------o||
|-----------------------------|-------------------||


 *Breakdown*
  Fmaj7    D5  Fmaj7      D5    F
  Gtr I
           PM|            PM--|
   Q    Q  E E  Q     Q   E E E  E  E  E
|------------------|---------------------|
|------------------|---------------------|
|--9----9-------9--|--9---------10-10-10-|
|--7----7-------7--|--7----------7--7--7-|
|--8----8--0-0--8--|--8---0-0-0--8--8--8-|
|----------0-0-----|------0-0-0----------|
|
| Gtr II
|          PM|            PM--|
|  Q    Q  E E  Q     Q   E E E  E  E  E
|------------------|---------------------|
|------------------|---------------------|
|-10---10------10--|-10---------10-10-10-|
|--x----x-------x--|--x----------x--x--x-|
|--8----8--0-0--8--|--8---0-0-0--8--8--8-|
|----------0-0-----|------0-0-0----------|
|
| Gtr III
| +W                 +W
|-(8)--------------|-(8)-----------------|
|-(6)--------------|-(6)-----------------|
|-(9)--------------|-(9)-----------------|
|------------------|---------------------|
|------------------|---------------------|
|------------------|---------------------|


  Fmaj7    D5  Fmaj7      D5    F
           PM|            PM--|
   Q    Q  E E  Q     Q   E E E  E  E  E
|------------------|---------------------|
|------------------|---------------------|
|--9----9-------9--|--9---------10-10-10-|
|--7----7-------7--|--7----------7--7--7-|
|--8----8--0-0--8--|--8---0-0-0--8--8--8-|
|----------0-0-----|------0-0-0----------|
|
|          PM|            PM--|
|  Q    Q  E E  Q     Q   E E E  E  E  E
|------------------|---------------------|
|------------------|---------------------|
|-10---10------10--|-10---------10-10-10-|
|--x----x-------x--|--x----------x--x--x-|
|--8----8--0-0--8--|--8---0-0-0--8--8--8-|
|----------0-0-----|------0-0-0----------|
|
| +W                 +W
|-(8)--------------|-(8)-----------------|
|-(6)--------------|-(6)-----------------|
|-(9)--------------|-(9)-----------------|
|------------------|---------------------|
|------------------|---------------------|
|------------------|---------------------|


  Fmaj7    D5  Fmaj7      D5    F
           PM|            PM--|
   Q    Q  E E  Q     Q   E E E  E  E  E
|------------------|---------------------|
|------------------|---------------------|
|--9----9-------9--|--9---------10-10-10-|
|--7----7-------7--|--7----------7--7--7-|
|--8----8--0-0--8--|--8---0-0-0--8--8--8-|
|----------0-0-----|------0-0-0----------|
|
|          PM|            PM--|
|  Q    Q  E E  Q     Q   E E E  E  E  E
|------------------|---------------------|
|------------------|---------------------|
|-10---10------10--|-10---------10-10-10-|
|--x----x-------x--|--x----------x--x--x-|
|--8----8--0-0--8--|--8---0-0-0--8--8--8-|
|----------0-0-----|------0-0-0----------|
|
| +W                 +W
|-(8)--------------|-(8)-----------------|
|-(6)--------------|-(6)-----------------|
|-(9)--------------|-(9)-----------------|
|------------------|---------------------|
|------------------|---------------------|
|------------------|---------------------|


  Fmaj7    D5  Fmaj7      D5    F
           PM|            PM--|
   Q    Q  E E  Q     Q   E E E  E  E  E
|------------------|---------------------||
|------------------|---------------------||
|--9----9-------9--|--9---------10-10-10-||
|--7----7-------7--|--7----------7--7--7-||
|--8----8--0-0--8--|--8---0-0-0--8--8--8-||
|----------0-0-----|------0-0-0----------||
|
|          PM|            PM--|
|  Q    Q  E E  Q     Q   E E E  E  E  E
|------------------|---------------------||
|------------------|---------------------||
|-10---10------10--|-10---------10-10-10-||
|--x----x-------x--|--x----------x--x--x-||
|--8----8--0-0--8--|--8---0-0-0--8--8--8-||
|----------0-0-----|------0-0-0----------||
|
| +W                 +W
|-(8)--------------|-(8)-----------------||
|-(6)--------------|-(6)-----------------||
|-(9)--------------|-(9)-----------------||
|------------------|---------------------||
|------------------|---------------------||
|------------------|---------------------||


 "We have not yet.."
  Fmaj7    D5  Fmaj7      D5    F
           PM|            PM--|
   Q    Q  E E  Q     Q   E E E  E  E  E
|------------------|---------------------|
|------------------|---------------------|
|--9----9-------9--|--9---------10-10-10-|
|--7----7-------7--|--7----------7--7--7-|
|--8----8--0-0--8--|--8---0-0-0--8--8--8-|
|----------0-0-----|------0-0-0----------|
|
|          PM|            PM--|
|  Q    Q  E E  Q     Q   E E E  E  E  E
|------------------|---------------------|
|------------------|---------------------|
|-10---10------10--|-10---------10-10-10-|
|--x----x-------x--|--x----------x--x--x-|
|--8----8--0-0--8--|--8---0-0-0--8--8--8-|
|----------0-0-----|------0-0-0----------|
|
|  >
| +W                 +W
|-(8)--------------|-(8)-----------------|
|-(6)--------------|-(6)-----------------|
|-(9)--------------|-(9)-----------------|
|------------------|---------------------|
|------------------|---------------------|
|------------------|---------------------|


  Fmaj7    D5  Fmaj7      D5    F
           PM|            PM--|
   Q    Q  E E  Q     Q   E E E  E  E  E
|------------------|---------------------|
|------------------|---------------------|
|--9----9-------9--|--9---------10-10-10-|
|--7----7-------7--|--7----------7--7--7-|
|--8----8--0-0--8--|--8---0-0-0--8--8--8-|
|----------0-0-----|------0-0-0----------|
|
|          PM|            PM--|
|  Q    Q  E E  Q     Q   E E E  E  E  E
|------------------|---------------------|
|------------------|---------------------|
|-10---10------10--|-10---------10-10-10-|
|--x----x-------x--|--x----------x--x--x-|
|--8----8--0-0--8--|--8---0-0-0--8--8--8-|
|----------0-0-----|------0-0-0----------|
|
| +W                 +W
|-(8)--------------|-(8)-----------------|
|-(6)--------------|-(6)-----------------|
|-(9)--------------|-(9)-----------------|
|------------------|---------------------|
|------------------|---------------------|
|------------------|---------------------|


  Fmaj7    D5  Fmaj7      D5    F
           PM|            PM--|
   Q    Q  E E  Q     Q   E E E  E  E  E
|------------------|---------------------|
|------------------|---------------------|
|--9----9-------9--|--9---------10-10-10-|
|--7----7-------7--|--7----------7--7--7-|
|--8----8--0-0--8--|--8---0-0-0--8--8--8-|
|----------0-0-----|------0-0-0----------|
|
|          PM|            PM--|
|  Q    Q  E E  Q     Q   E E E  E  E  E
|------------------|---------------------|
|------------------|---------------------|
|-10---10------10--|-10---------10-10-10-|
|--x----x-------x--|--x----------x--x--x-|
|--8----8--0-0--8--|--8---0-0-0--8--8--8-|
|----------0-0-----|------0-0-0----------|
|
| +W                 +W
|-(8)--------------|-(8)-----------------|
|-(6)--------------|-(6)-----------------|
|-(9)--------------|-(9)-----------------|
|------------------|---------------------|
|------------------|---------------------|
|------------------|---------------------|


  Fmaj7    D5  Fmaj7      D5    F
           PM|            PM--|
   Q    Q  E E  Q     Q   E E E  E  E  E
|------------------|---------------------||
|------------------|---------------------||
|--9----9-------9--|--9---------10-10-10-||
|--7----7-------7--|--7----------7--7--7-||
|--8----8--0-0--8--|--8---0-0-0--8--8--8-||
|----------0-0-----|------0-0-0----------||
|
|          PM|            PM--|
|  Q    Q  E E  Q     Q   E E E  E  E  E
|------------------|---------------------||
|------------------|---------------------||
|-10---10------10--|-10---------10-10-10-||
|--x----x-------x--|--x----------x--x--x-||
|--8----8--0-0--8--|--8---0-0-0--8--8--8-||
|----------0-0-----|------0-0-0----------||
|
| +W                 +W
|-(8)--------------|-(8)-----------------||
|-(6)--------------|-(6)-----------------||
|-(9)--------------|-(9)-----------------||
|------------------|---------------------||
|------------------|---------------------||
|------------------|---------------------||


 Outro
  Fmaj7
   Q   H.         +W            +W            +W
|--------------|-------------|-------------|---------|
|--------------|-------------|-------------|---------|
|--9---9-------|--(9)--------|--(9)--------|--(9)----|
|--7---7-------|--(7)--------|--(7)--------|--(7)----|
|--8---8-------|--(8)--------|--(8)--------|--(8)----|
|--------------|-------------|-------------|---------|
|
|  Q   H.         +W            +W            +W
|--------------|-------------|-------------|---------|
|--------------|-------------|-------------|---------|
|-10--10-------|-(10)--------|-(10)--------|-(10)----|
|--x---x-------|--(x)--------|--(x)--------|--(x)----|
|--8---8-------|--(8)--------|--(8)--------|--(8)----|
|--------------|-------------|-------------|---------|
|
|                                              <
|  W               W             W             W
|--------------|-------------|-------------|--<7>----|
|--------------|-------------|-------------|---------|
|--------------|-------------|-------------|---------|
|--------------|-------------|-------------|---------|
|--------------|-------------|-------------|---------|
|--------------|-------------|-------------|---------|


  Fmaj7
  Gtr I
   +W             +W             +W             +W
|--------------|--------------|--------------|----------*|
|--------------|--------------|--------------|----------*|
|--(9)---------|--(9)---------|--(9)---------|--(9)-----*|
|--(7)---------|--(7)---------|--(7)---------|--(7)-----*|
|--(8)---------|--(8)---------|--(8)---------|--(8)-----*|
|--------------|--------------|--------------|----------*|
|
| Gtr II
|  +W             +W             +W             +W
|--------------|--------------|--------------|----------*|
|--------------|--------------|--------------|----------*|
|-(10)---------|-(10)---------|-(10)---------|-(10)-----*|
|--(x)---------|--(x)---------|--(x)---------|--(x)-----*|
|--(8)---------|--(8)---------|--(8)---------|--(8)-----*|
|--------------|--------------|--------------|----------*|
|
| Gtr III
|                                 <
|  +W             +W             +W             +W
|-(<7>)--------|-(<7>)--------|-(<7>)--------|-(<7>)----*|
|--------------|--------------|--------------|----------*|
|--------------|--------------|--------------|----------*|
|--------------|--------------|--------------|----------*|
|--------------|--------------|--------------|----------*|
|--------------|--------------|--------------|----------*|
Добавлено: 02.07.2012
Другие материалы по этой песне:

Страница создана 07.03.2012
http://primanota.ru/beloved/failure-on-my-lips-chords.htm
Привет, Гость.
Предлагаем пройти революционный курс по гитаре.
Подарок от PrimaNota.Ru, забирай!