PrimaNota.ru - самый крупный в мире бесплатный архив песенных текстов, аккордов, табулатур и нот


Beloved - Allure - текст песни, таба, бас-таба, видео

Регистрация Запомнить меня
Войти через:  Facebook Google Twitter Vk Yandex Mail.ru

Beloved - Allure - текст песни, таба, бас-таба, видео

Печатать
Просмотров: 179
----------------------------------------------------
                 Allure - Beloved
----------------------------------------------------
Tabbed by: Kristyn Lee
Email: spot_the_village_loony_836@hotmail.com

Tuning: Drop D

VERSE
guitar 1
e|--12-----------14-------------12-----------14-------------|
B|-----14/15\12-----14/15\12-------14/15\12-----14/15\12----|
G|----------------------------------------------------------|
D|----------------------------------------------------------|
A|----------------------------------------------------------|
D|----------------------------------------------------------|
Guitar 2 
e|---------------------------|
B|---------------------------|
G|---------------------------|x2
D|---(9)----7/9-7/9----(9)---|
A|---------------------------|
D|---------------------------|
guitar 1 
e|----14-------14------------------|
B|-------14/15----14/15------------|
G|---------------------------------|
D|---------------------------------|
A|---------------------------------|
D|---------------------------------|
guitar 2
e|--------------------------------------------|
B|--------------------10----------------------|
G|----11--6-7--11-6-7-------------------------|
D|--------------------------------------------|
A|--------------------------------------------|
D|--------------------------------------------|

Then repeat the riff above.

1:45
guitar 1
e|--------------------------------------------|
B|--------------------------------10~---------|
G|----11---6---7~----11---6---7---------------|x2
D|--------------------------------------------|
A|--------------------------------------------|
D|--------------------------------------------|
guitar 2
e|-------------------------------------------------|
B|-------------------------------------------------|
G|-------------------------------------------------|
D|---0-0-0-0~---0-0-0-0~---0-0-0-0~---0-0-0-0~-----|
A|---0-0-0-0~---0-0-0-0~---0-0-0-0~---0-0-0-0~-----|
D|---0-0-0-0~---0-0-0-0~---0-0-0-0~---0-0-0-0~-----|

1:59
guitar 1
e|-----------------|
B|---------12------|
G|---7---9---------|x8
D|-----9-----------|
A|-----------------|
D|-----------------|
guitar 2
e|---------------------------------------------|
B|---------------------------------------------|
G|---4444------4444-----4444------4444---------|x4
D|---4444------4444-----4444------4444---------|
A|---2222-0000-2222-000-2222-0000-2222-000-----|
D|--------0000------000------0000------000-----|
2:25
guitar 1
e|--------------------------------------------------------|
B|---7777777777777777-12121212121212121212121212121212----|
G|---6666666666666666-11111111111111111111111111111111----|
D|--------------------------------------------------------|
A|--------------------------------------------------------|
D|--------------------------------------------------------|
guitar 2
e|----------------------------------------|
B|----------------------------------------|
G|----------------------------------------|
D|---4444444444444444-5555555555555555----|
A|---4444444444444444-5555555555555555----|
D|---4444444444444444-5555555555555555----|

2:31
guitar 1
e|-----------------|
B|---------12------|
G|---7---9---------|x2
D|-----9-----------|
A|-----------------|
D|-----------------|
guitar 2
e|---------------------------------------------|
B|---------------------------------------------|
G|---4444------4444-----4444------4444---------|x1
D|---4444------4444-----4444------4444---------|
A|---2222-0000-2222-000-2222-0000-2222-000-----|
D|--------0000------000------0000------000-----|

2:37
guitar 1
e|--------------------------------------------------------|
B|---7777777777777777-12121212121212121212121212121212----|
G|---6666666666666666-11111111111111111111111111111111----|
D|--------------------------------------------------------|
A|--------------------------------------------------------|
D|--------------------------------------------------------|
guitar 2
e|----------------------------------------|
B|----------------------------------------|
G|----------------------------------------|
D|---4444444444444444-5555555555555555----|
A|---4444444444444444-5555555555555555----|
D|---4444444444444444-5555555555555555----|

2:43
guitar 1
e|---15-14-----------------------|
B|---------15-12-----------------|
G|----------------9-12-11--------|
D|------------------------12-----|
A|-------------------------------|
D|-------------------------------|
guitar 2
e|---------------------------|
B|---------------------------|
G|---------------------------|x4
D|--2222-55-00--9999-55-00---|
A|--2222-55-00--9999-55-00---|
D|--2222-55-00--9999-55-00---|

guitar 1
e|---15-14-----------------------|
B|---------15-12-----------------|
G|----------------9-12-11--------|
D|------------------------12-----|
A|-------------------------------|
D|-------------------------------|
guitar 2
e|-------------------------|
B|-------------------------|
G|-------------------------|x4
D|---9-5-4-0~--9-5-0-2~----|
A|---9-5-4-0~--9-5-0-2~----|
D|---9-5-4-0~--9-5-0-2~----|


************************************

| /   slide up
| \   slide down
| h   hammer-on
| p   pull-off
| ~   vibrato
| +   harmonic
| x   Mute note
| b   Bend
| pb  Pre-bend
| br  Bend release
| pbr Pre-bend release
| brb Bend release bend

************************************
Добавлено: 13.06.2012
Другие материалы по этой песне:
  • Аккорды и текст

Страница создана 11.03.2012
http://primanota.ru/beloved/allure-chords.htm
Привет, Гость.
Предлагаем пройти революционный курс по гитаре.
Подарок от PrimaNota.Ru, забирай!