PrimaNota.ru - самый крупный в мире бесплатный архив песенных текстов, аккордов, табулатур и нот


Bellows - White Sheet - таба, видео

Регистрация Запомнить меня
Войти через:  Facebook Google Twitter Vk Yandex Mail.ru

Bellows - White Sheet - таба, видео

Печатать
Просмотров: 79
-------------------------------------------------------------------------------
                             White Sheet - Bellows
-------------------------------------------------------------------------------

Tuning: Standard

Capo 4 (tabbed relative to capo)

This is based off of their live performances, not the studio version

The Only Riff:

e|---------------------------------------------------------------------------|
B|----------1-------0-------1------------------------------------------------|
G|---0-----------------------------------------------------------------------|
D|---------------------------------------------------------------------------|
A|----2---2---2---2---2---2---2---2------------------------------------------|
E|------3-------3-------3-------3--------------------------------------------|

all your friends will say 
that you are the biggest faker 
when you decide to say 
that you are a life taker 

what do you hear when the phone rings? 
A white sheet on old things 
and we all sing - 
I won't shake your hand, I don't wanna be an earth-quaker 
I won't shake your hand, I don't wanna be a heart-breaker 
ah, ah ah ah, ah ah ah, ah ah ah ah ah ah 

Wait! I think someone's at the door... 
I know it's not your mother 
Wide old world in store 
But it's just for someone other 

what do you hear when the phone rings? 
a new ghost for bad dreams 
and we all sing - 
I won't shake your hand, I don't wanna be a god-fearer 
I won't shake your hand, I don't ever wanna get nearer 
ah, ah ah ah, ah ah ah. ah ah ah ah ah ah 

I used to love to feel this way 
final breath breathing 
I used to love to feel this way 
final hurt coming 

ah, ah ah ah, ah ah ah. ah ah ah ah ah ah
Добавлено: 07.12.2015
Вам также может быть интересно:
Другие материалы по этой песне:
  • Аккорды и текст

Страница создана 07.12.2015
http://primanota.ru/bellows/white-sheet-chords.htm
Привет, Гость.
Предлагаем пройти революционный курс по гитаре.
Подарок от PrimaNota.Ru, забирай!