PrimaNota.ru - самый крупный в мире бесплатный архив песенных текстов, аккордов, табулатур и нот


Bellows - Hello Morning - таба, видео

Регистрация Запомнить меня
Войти через:  Facebook Google Twitter Vk Yandex Mail.ru

Bellows - Hello Morning - таба, видео

Печатать
Просмотров: 41
-------------------------------------------------------------------------------
                          Hello Morning - Bellows
-------------------------------------------------------------------------------

Live not the studio version

Tuning: Standard

Capo 4 (relative to capo)

I like the sound when the doors close
e|---------------------------------------------------------------------------|
B|---------------------------------------------------------------------------|
G|------0-----0-----0-----0-----0-----0-----0--------------------------------|
D|--0h2---0h2---0h4----------------------------------------------------------|
A|--0h3---0h3---0h5---0h2---0h2---0h2---0h2----------------------------------|
E|--------------------0h3---0h3---0h3---0h3----------------------------------|

Hello morning, it's time to go 
e|---------------------------------------------------------------------------|
B|---------------------------------------------------------------------------|
G|------0-----0-----0-----0-----0-----0-----0--------------------------------|
D|--0h2---0h2---0h4----------------------------------------------------------|
A|--0h3---0h3---0h5---0h2---0h2---0h2---0h2----------------------------------|
E|--------------------0h3---0h3---0h3---0h3----------------------------------|
 
I've spent so much time bleeding 
e|---------------------------------------------------------------------------|
B|---------------------------------------------------------------------------|
G|------0-----0-----0-----0--------------------------------------------------|
D|--0h5---0h5---0h2---0h2----------------------------------------------------|
A|--0h7---0h7---0h3---0h3----------------------------------------------------|
E|---------------------------------------------------------------------------|

I forgot to shave my beard 
e|---------------------------------------------------------------------------|
B|---------------------------------------------------------------------------|
G|------0-----0-----0-----0--------------------------------------------------|
D|--------------0h4---0h4----------------------------------------------------|
A|--0h2---0h2---0h5---0h5----------------------------------------------------|
E|--0h3---0h3----------------------------------------------------------------|

It shows you how long I've been here
e|---------------------------------------------------------------------------|
B|---------------------------------------------------------------------------|
G|------0-----0-----0-----0-----0-----0-----0-----0--------------------------|
D|--0h2---------0h5---0h4----------------------------------------------------|
A|--0h3---0h2---0h7---0h5---0h2---0h2---0h2---0h2----------------------------|
E|--------0h3---------------0h3---0h3---0h3---0h3----------------------------|

Here's your birthday card, i love you so much
e|---------------------------------------------------------------------------|
B|---------------------------------------------------------------------------|
G|------0-----0-----0-----0-----0-----0-----0--------------------------------|
D|--0h2---0h2---0h4----------------------------------------------------------|
A|--0h3---0h3---0h5---0h2---0h2---0h2---0h2----------------------------------|
E|--------------------0h3---0h3---0h3---0h3----------------------------------|

I pray to god that he chains you up 
e|---------------------------------------------------------------------------|
B|---------------------------------------------------------------------------|
G|------0-----0-----0-----0-----0-----0-----0--------------------------------|
D|--0h2---0h2---0h4----------------------------------------------------------|
A|--0h3---0h3---0h5---0h2---0h2---0h2---0h2----------------------------------|
E|--------------------0h3---0h3---0h3---0h3----------------------------------|

we sing words that have no meaning
e|---------------------------------------------------------------------------|
B|---------------------------------------------------------------------------|
G|------0-----0-----0-----0--------------------------------------------------|
D|--0h5---0h5---0h2---0h2----------------------------------------------------|
A|--0h7---0h7---0h3---0h3----------------------------------------------------|
E|---------------------------------------------------------------------------|

but feel twice as nice to hear
e|---------------------------------------------------------------------------|
B|---------------------------------------------------------------------------|
G|------0-----0-----0-----0--------------------------------------------------|
D|--------------0h4---0h4----------------------------------------------------|
A|--0h2---0h2---0h5---0h5----------------------------------------------------|
E|--0h3---0h3----------------------------------------------------------------|
 
they show you how far i've come 
e|---------------------------------------------------------------------------|
B|---------------------------------------------------------------------------|
G|------0-----0-----0-----0-----0-----0-----0-----0--------------------------|
D|--0h2---------0h5---0h4----------------------------------------------------|
A|--0h3---0h2---0h7---0h5---0h2---0h2---0h2---0h2----------------------------|
E|--------0h3---------------0h3---0h3---0h3---0h3----------------------------|


e|---------------------------------------------------------------------------|
B|--3-------3-------3--------------------------------------------------------|
G|----0-------0-------0------------------------------------------------------|
D|--------2-------2-------4-----0-----0-----0-----0--------------------------|
A|------3-------3-------5---0h2---0h2---0h2---0h2----------------------------| 2x
E|--------------------------0h3---0h3---0h3---0h3----------------------------|

Ooooooooooooooooooooooooooooo
e|---------------------------------------------------------------------------|
B|---------------------------------------------------------------------------|
G|------0-----0-----0-----0--------------------------------------------------|
D|--0h5---0h5---0h2---0h2----------------------------------------------------|
A|--0h7---0h7---0h3---0h3----------------------------------------------------|
E|---------------------------------------------------------------------------|

Oooooooooooooooooooooooooooo
e|---------------------------------------------------------------------------|
B|---------------------------------------------------------------------------|
G|------0-----0-----0-----0--------------------------------------------------|
D|--------------0h4---0h4----------------------------------------------------|
A|--0h2---0h2---0h5---0h5----------------------------------------------------|
E|--0h3---0h3----------------------------------------------------------------|

Oooooooooooooooooooooooooooo
e|---------------------------------------------------------------------------|
B|---------------------------------------------------------------------------|
G|------0-----0-----0-----0-----0-----0-----0-----0--------------------------|
D|--0h2---------0h5---0h4----------------------------------------------------|
A|--0h3---0h2---0h7---0h5---0h2---0h2---0h2---0h2----------------------------|
E|--------0h3---------------0h3---0h3---0h3---0h3----------------------------|


alone for the length of a cigarette 
e|---------------------------------------------------------------------------|
B|---------------------------------------------------------------------------|
G|------0-----0-----0-----0-----0-----0-----0--------------------------------|
D|--0h2---0h2---0h4----------------------------------------------------------|
A|--0h3---0h3---0h5---0h2---0h2---0h2---0h2----------------------------------|
E|--------------------0h3---0h3---0h3---0h3----------------------------------|

the plastic kiss that we won't forget 
e|---------------------------------------------------------------------------|
B|---------------------------------------------------------------------------|
G|------0-----0-----0-----0-----0-----0-----0--------------------------------|
D|--0h2---0h2---0h4----------------------------------------------------------|
A|--0h3---0h3---0h5---0h2---0h2---0h2---0h2----------------------------------|
E|--------------------0h3---0h3---0h3---0h3----------------------------------|

but if we never get off this highway 
e|---------------------------------------------------------------------------|
B|---------------------------------------------------------------------------|
G|------0-----0-----0-----0--------------------------------------------------|
D|--0h5---0h5---0h2---0h2----------------------------------------------------|
A|--0h7---0h7---0h3---0h3----------------------------------------------------|
E|---------------------------------------------------------------------------|

then you'll never have to leave 
e|---------------------------------------------------------------------------|
B|---------------------------------------------------------------------------|
G|------0-----0-----0-----0--------------------------------------------------|
D|--------------0h4---0h4----------------------------------------------------|
A|--0h2---0h2---0h5---0h5----------------------------------------------------|
E|--0h3---0h3----------------------------------------------------------------|

it shows you how red I bleed 
e|---------------------------------------------------------------------------|
B|---------------------------------------------------------------------------|
G|------0-----0-----0-----0-----0-----0-----0-----0--------------------------|
D|--0h2---------0h5---0h4----------------------------------------------------|
A|--0h3---0h2---0h7---0h5---0h2---0h2---0h2---0h2----------------------------|
E|--------0h3---------------0h3---0h3---0h3---0h3----------------------------|

it shows you how far I've come 
e|---------------------------------------------------------------------------|
B|---------------------------------------------------------------------------|
G|------0-----0-----0-----0-----0-----0-----0-----0--------------------------|
D|--0h2---------0h5---0h4----------------------------------------------------|
A|--0h3---0h2---0h7---0h5---0h2---0h2---0h2---0h2----------------------------|
E|--------0h3---------------0h3---0h3---0h3---0h3----------------------------|

it shows you how far I've come 
e|---------------------------------------------------------------------------|
B|---------------------------------------------------------------------------|
G|------0-----0-----0-----0-----0-----0-----0-----0--------------------------|
D|--0h2---------0h5---0h4----------------------------------------------------|
A|--0h3---0h2---0h7---0h5---0h2---0h2---0h2---0h2----------------------------|
E|--------0h3---------------0h3---0h3---0h3---0h3----------------------------|

it shows you how far I've come
e|---------------------------------------------------------------------------|
B|---------------------------------------------------------------------------|
G|------0-----0-----0-----0-----0-----0-----0-----0--------------------------|
D|--0h2---------0h5---0h4----------------------------------------------------|
A|--0h3---0h2---0h7---0h5---0h2---0h2---0h2---0h2----------------------------|
E|--------0h3---------------0h3---0h3---0h3---0h3----------------------------|
Добавлено: 25.06.2016
Другие материалы по этой песне:
  • Аккорды и текст

Страница создана 25.06.2016
http://primanota.ru/bellows/hello-morning-chords.htm
Привет, Гость.
Предлагаем пройти революционный курс по гитаре.
Подарок от PrimaNota.Ru, забирай!