PrimaNota.ru - самый крупный в мире бесплатный архив песенных текстов, аккордов, табулатур и нот


Bellows - For Rock Dove - таба, видео

Регистрация Запомнить меня
Войти через:  Facebook Google Twitter Vk Yandex Mail.ru

Bellows - For Rock Dove - таба, видео

Печатать
Просмотров: 119
-------------------------------------------------------------------------------
                          For Rock Dove - Bellows
-------------------------------------------------------------------------------

Tuning: Standard

This is based off of a live version

Capo on 5 (tab not written relative to capo)

Riff 1

e|--5555---------|
B|--7777---------|
G|--7777h9-------|
D|--7777---------|
A|--5555---------|
E|--5555---------|

Chords (low E to high e)

D: 557775
Bm: 559775
Em: 779777

e|---------------------------------------------------------------------------|
B|---------------------------------------------------------------------------|
G|--------9-------9-------9-------9------------------------------------------|
D|----7-------7-------7-------7----------------------------------------------|
A|--5---5---5---5---5---5---5---5--------------------------------------------|
E|---------------------------------------------------------------------------|

e|--7p5-----7p5-7p5-----7p5--------------------------------------------------|
B|------7-----------7--------------------------------------------------------|
G|--------7-----------7------------------------------------------------------|
D|---------------------------------------------------------------------------|
A|---------------------------------------------------------------------------|
E|---------------------------------------------------------------------------|

e|---------------------------------------------------------------------------|
B|---------------------------------------------------------------------------|
G|--------9-------9-------9-------9------------------------------------------|
D|----7-------7-------7-------7----------------------------------------------|
A|--5---5---5---5---5---5---5---5--------------------------------------------|
E|---------------------------------------------------------------------------|

e|--7p5-----7p5-7p5-----7p5--------------------------------------------------|
B|------7-----------7--------------------------------------------------------|
G|--------7-----------7------------------------------------------------------|
D|---------------------------------------------------------------------------|
A|---------------------------------------------------------------------------|
E|---------------------------------------------------------------------------|

e|--------5---------------5---------------5---------------5------------------|
B|----------7-7-7-7---------7-7-7-7---------7-7-7-7---------7-7-7------------|
G|--9-7-7-----------9-7-7-----------9-7-7-----------9-7-7--------------------|
D|---------------------------------------------------------------------------|
A|---------------------------------------------------------------------------|
E|---------------------------------------------------------------------------|

D
a prayer for an open wound 
to dignify existing in its air
Bm                        Em
we live for a second only and then we're claimed by the atmosphere

D
a prayer for a life not lived 
to dignify screaming til you can't anymore
Bm 
so ashamed of the love you carry 
Em
the crowded rooms where you speak the dark side of your heart

D
what if like geese we could migrate, migrate 
to a place no one follows? 
wish I could speak what's inside me always 
I am a bird with a wing of stone 

e|--------5---------------5---------------5---------------5------------------|
B|----------7-7-7-7---------7-7-7-7---------7-7-7-7---------7-7-7------------|
G|--9-7-7-----------9-7-7-----------9-7-7-----------9-7-7--------------------|
D|---------------------------------------------------------------------------|
A|---------------------------------------------------------------------------|
E|---------------------------------------------------------------------------|

D
I remember when we were small 
-- It's dark in this cave and we grow without eyes --
Bm                                             Em
But your voice is brave and warm and though we trip and fall we come out on the other side alive
Riff 1 
and what a calm feeling! 
It's like we're dressed up warm cause it's nearing night
Bm                                   Em
in the part of your voice that broke when you called me on the telephone
and told me that last night grandma died

D
what if like geese we could migrate, migrate 
to a place no one follows? 
wish I could speak what's inside me always 
I am a bird with a wing of stone 
dissipate with the flesh you tainted 
speak loud if you're doing it now 
you are alone and there's no one listening 
I am a bird with a wing of stone

e|--------5---------------5---------------5---------------5------------------|
B|----------7-7-7-7---------7-7-7-7---------7-7-7-7---------7-7-7------------|
G|--9-7-7-----------9-7-7-----------9-7-7-----------9-7-7--------------------|
D|---------------------------------------------------------------------------|
A|---------------------------------------------------------------------------|
E|---------------------------------------------------------------------------|

D
so sorry you don't bleed right, I'm so sorry you don't bleed right 
so sorry you don't bleed right, I'm so sorry you don't bleed right 
so sorry you don't bleed right, I'm so sorry you don't bleed right 
so sorry you don't bleed right, I'm so sorry you don't bleed right
                         
and who are you in the back of this stereo? 
Bm                  Em
it's what I want to hear until I'm very old 
D
we cannot slow the burn on your cigarette 
Bm                 Em
we can't stop time for a minute 
D
or slow the rate of your pulse on your beating heart 
Bm                       Em
... if we didn't have to joke to know who we are ...
D
and if a screaming voice is all you are 
Bm                    Em       
speak loud if you've ceased to be at all!

e|---------------------------------------------------------------------------|
B|---------------------------------------------------------------------------|
G|--------9-------9-------9-------9------------------------------------------|
D|----7-------7-------7-------7----------------------------------------------|
A|--5---5---5---5---5---5---5---5--------------------------------------------|
E|---------------------------------------------------------------------------|

e|--7p5-----7p5-7p5-----7p5--------------------------------------------------|
B|------7-----------7--------------------------------------------------------|
G|--------7-----------7------------------------------------------------------|
D|---------------------------------------------------------------------------|
A|---------------------------------------------------------------------------|
E|---------------------------------------------------------------------------|

e|---------------------------------------------------------------------------|
B|---------------------------------------------------------------------------|
G|--------9-------9-------9-------9------------------------------------------|
D|----7-------7-------7-------7----------------------------------------------|
A|--5---5---5---5---5---5---5---5--------------------------------------------|
E|---------------------------------------------------------------------------|

e|--7p5-----7p5-7p5-----7p5--------------------------------------------------|
B|------7-----------7--------------------------------------------------------|
G|--------7-----------7------------------------------------------------------|
D|---------------------------------------------------------------------------|
A|---------------------------------------------------------------------------|
E|---------------------------------------------------------------------------|

D
but what if like geese we could migrate, migrate 
to a place no one follows -- oooooohhhhhh 
what if like geese we could migrate, migrate 
to a place no one follows 
wish I could speak what's inside me always 
I am a runner but with bones all broken
Добавлено: 15.08.2015
Другие материалы по этой песне:
  • Аккорды и текст

Страница создана 15.08.2015
http://primanota.ru/bellows/for-rock-dove-chords.htm
Привет, Гость.
Предлагаем пройти революционный курс по гитаре.
Подарок от PrimaNota.Ru, забирай!