PrimaNota.ru - самый крупный в мире бесплатный архив песенных текстов, аккордов, табулатур и нот


Belle Epoque - Black is Black - текст песни, таба, видео

Регистрация Запомнить меня
Войти через:  Facebook Google Twitter Vk Yandex Mail.ru

Belle Epoque - Black is Black - текст песни, таба, видео

Печатать
Просмотров: 168
Авторы: Steve Wadey, Michelle Grainger, Tony Hayes

Belle Epoque - Black is black 
(120bpm)


E |-----------------0-----3L---|--3-------------------------------------------------|
B |--------------0-------------|----------------------------------------------------|
G |----------------------------|----------------------------------------------------|
D |----------------------------|----------------------------------------------------|
A |----------------------------|----------------------------------------------------|
E |----------------------------|----------------------------------------------------|

--------------------------------0-----------2-------|----------------------------------------------------|
--------------------------3-------------------------|--------3-------------------------------------------|
-----------------2----------------------------------|--------------------2-------------------------------|
----------------------------------------------------|----------------------------------------------------|
----------------------------------------------------|----------------------------------------------------|
----------------------------------------------------|----------------------------------------------------|

--------------------------0-----2-----------3L------|--3-------------------------------------------------|
--------------------0-------------------------------|----------------------------------------------------|
----------------------------------------------------|----------------------------------------------------|
----------------------------------------------------|----------------------------------------------------|
----------------------------------------------------|----------------------------------------------------|
----------------------------------------------------|----------------------------------------------------|

-----------------------------------------0L---------|--0L-0----------------------------------------------|
--------------------------2-----3-------------------|-----2L-2-------------------------------------------|
--------------------2-------------------------------|-----------------2L----------2--0-------------------|
----------------------------------------------------|--------------------------------------------4L------|
----------------------------------------------------|----------------------------------------------------|
----------------------------------------------------|----------------------------------------------------|

--------------------------------0-----------2L------|--2--------------------------------------2----------|
--------------------------3-------------------------|----------------------------------------------------|
--------------------2-------------------------------|----------------------------------------------------|
--4-------------------------------------------------|----------------------------------------------------|
----------------------------------------------------|----------------------------------------------------|
----------------------------------------------------|----------------------------------------------------|

--3-----------2-----------0-------------------------|--------------------------0-----0-----0-----0L------|
--------------------------------3-----------2-------|----------------------------------------------------|
----------------------------------------------------|----------------------------------------------------|
----------------------------------------------------|----------------------------------------------------|
----------------------------------------------------|----------------------------------------------------|
----------------------------------------------------|----------------------------------------------------|

--0-------------------------------------------------|-------|
--------3-------------------------------------------|-------|
----------------------------------------------------|-------|
----------------------------------------------------|-------|
----------------------------------------------------|-------|
----------------------------------------------------|-------|



--------------------------------0-----2-----3L------|--3-------------------------------------------------|
--------------------0-----0-------------------------|----------------------------------------------------|
----------------------------------------------------|----------------------------------------------------|
----------------------------------------------------|----------------------------------------------------|
----------------------------------------------------|----------------------------------------------------|
----------------------------------------------------|----------------------------------------------------|

--------------------------------0-----------2-------|----------------------------------------------------|
--------------------------3-------------------------|--------3-------------------------------------------|
-----------------2----------------------------------|--------------------2-------------------------------|
----------------------------------------------------|----------------------------------------------------|
----------------------------------------------------|----------------------------------------------------|
----------------------------------------------------|----------------------------------------------------|

--------------------------------0-----2-----3L------|--3-------------------------------------------------|
--------------------0-----0-------------------------|----------------------------------------------------|
----------------------------------------------------|----------------------------------------------------|
----------------------------------------------------|----------------------------------------------------|
----------------------------------------------------|----------------------------------------------------|
----------------------------------------------------|----------------------------------------------------|

-----------------------------------------0L---------|--0L-0----------------------------------------------|
--------------------------2-----3-------------------|-----2L-2-------------------------------------------|
--------------------2-------------------------------|-----------------2L----------2--0-------------------|
----------------------------------------------------|--------------------------------------------4L------|
----------------------------------------------------|----------------------------------------------------|
----------------------------------------------------|----------------------------------------------------|

--------------------------------0-----------2L------|--2--------------------------------------2----------|
--------------------------3-------------------------|----------------------------------------------------|
--------------------2-------------------------------|----------------------------------------------------|
--4-------------------------------------------------|----------------------------------------------------|
----------------------------------------------------|----------------------------------------------------|
----------------------------------------------------|----------------------------------------------------|

--3-----------2-----------0-------------------------|--------------------------0-----0-----0-----0L------|
--------------------------------3-----------2-------|----------------------------------------------------|
----------------------------------------------------|----------------------------------------------------|
----------------------------------------------------|----------------------------------------------------|
----------------------------------------------------|----------------------------------------------------|
----------------------------------------------------|----------------------------------------------------|

--0-------------------------------------------------|-------|
--------3-------------------------------------------|-------|
----------------------------------------------------|-------|
----------------------------------------------------|-------|
----------------------------------------------------|-------|
----------------------------------------------------|-------|



--0--------0--------0-----------------------0-------|--2-----2-----2-----2-----------0--------2----------|
----------------------------------------------------|----------------------------------------------------|
----------------------------------------------------|----------------------------------------------------|
----------------------------------------------------|----------------------------------------------------|
----------------------------------------------------|----------------------------------------------------|
----------------------------------------------------|----------------------------------------------------|

--3-----------3-----------3L------------------------|--3L----------------------3L----------3--------4----|
----------------------------------------------------|----------------------------------------------------|
----------------------------------------------------|----------------------------------------------------|
----------------------------------------------------|----------------------------------------------------|
----------------------------------------------------|----------------------------------------------------|
----------------------------------------------------|----------------------------------------------------|

--------4--4--------4--------------------4-----4----|-----4-----4-----4-----------2-----------4-----5L---|
----------------------------------------------------|----------------------------------------------------|
----------------------------------------------------|----------------------------------------------------|
----------------------------------------------------|----------------------------------------------------|
----------------------------------------------------|----------------------------------------------------|
----------------------------------------------------|----------------------------------------------------|

--5--------5-----------5L----------------------5L---|--5-------------------------------------------------|
----------------------------------------------------|----------------------------------------------------|
----------------------------------------------------|----------------------------------------------------|
----------------------------------------------------|----------------------------------------------------|
----------------------------------------------------|----------------------------------------------------|
----------------------------------------------------|----------------------------------------------------|

-----------------0-----3L---|
--------------0-------------|
----------------------------|
----------------------------|
----------------------------|
----------------------------|




--3-------------------------------------------------|--------------------------------0-----------2-------|
----------------------------------------------------|--------------------------3-------------------------|
----------------------------------------------------|-----------------2----------------------------------|
----------------------------------------------------|----------------------------------------------------|
----------------------------------------------------|----------------------------------------------------|
----------------------------------------------------|----------------------------------------------------|

----------------------------------------------------|--------------------------0-----2-----------3L------|
--------3-------------------------------------------|--------------------0-------------------------------|
--------------------2-------------------------------|----------------------------------------------------|
----------------------------------------------------|----------------------------------------------------|
----------------------------------------------------|----------------------------------------------------|
----------------------------------------------------|----------------------------------------------------|

--3-------------------------------------------------|-----------------------------------------0L---------|
----------------------------------------------------|--------------------------2-----3-------------------|
----------------------------------------------------|--------------------2-------------------------------|
----------------------------------------------------|----------------------------------------------------|
----------------------------------------------------|----------------------------------------------------|
----------------------------------------------------|----------------------------------------------------|

--0L-0----------------------------------------------|--------------------------------0-----------2L------|
-----2L-2-------------------------------------------|--------------------------3-------------------------|
-----------------2L----------2--0-------------------|--------------------2-------------------------------|
--------------------------------------------4L------|--4-------------------------------------------------|
----------------------------------------------------|----------------------------------------------------|
----------------------------------------------------|----------------------------------------------------|

--2--------------------------------------2----------|--3-----------2-----------0-------------------------|
----------------------------------------------------|--------------------------------3-----------2-------|
----------------------------------------------------|----------------------------------------------------|
----------------------------------------------------|----------------------------------------------------|
----------------------------------------------------|----------------------------------------------------|
----------------------------------------------------|----------------------------------------------------|

--------------------------0-----0-----0-----0L------|--0-------------------------------------------------||
----------------------------------------------------|--------3-------------------------------------------||
----------------------------------------------------|----------------------------------------------------||
----------------------------------------------------|----------------------------------------------------||
----------------------------------------------------|----------------------------------------------------||
----------------------------------------------------|----------------------------------------------------||





--0--------0--------0-----------------------0-------|--2-----2-----2-----2-----------0--------2----------|
----------------------------------------------------|----------------------------------------------------|
----------------------------------------------------|----------------------------------------------------|
----------------------------------------------------|----------------------------------------------------|
----------------------------------------------------|----------------------------------------------------|
----------------------------------------------------|----------------------------------------------------|

--3-----------3-----------3L------------------------|--3L----------------------3L----------3--------4----|
----------------------------------------------------|----------------------------------------------------|
----------------------------------------------------|----------------------------------------------------|
----------------------------------------------------|----------------------------------------------------|
----------------------------------------------------|----------------------------------------------------|
----------------------------------------------------|----------------------------------------------------|

--------4--4--------4--------------------4-----4----|-----4-----4-----4-----------2-----------4-----5L---|
----------------------------------------------------|----------------------------------------------------|
----------------------------------------------------|----------------------------------------------------|
----------------------------------------------------|----------------------------------------------------|
----------------------------------------------------|----------------------------------------------------|
----------------------------------------------------|----------------------------------------------------|

--5--------5-----------5L----------------------5L---|--5-------------------------------------------------|
----------------------------------------------------|----------------------------------------------------|
----------------------------------------------------|----------------------------------------------------|
----------------------------------------------------|----------------------------------------------------|
----------------------------------------------------|----------------------------------------------------|
----------------------------------------------------|----------------------------------------------------|

-----------------0-----3L---|
--------------0-------------|
----------------------------|
----------------------------|
----------------------------|
----------------------------|



--3-------------------------------------------------|--------------------------------0-----------2-------|
----------------------------------------------------|--------------------------3-------------------------|
----------------------------------------------------|-----------------2----------------------------------|
----------------------------------------------------|----------------------------------------------------|
----------------------------------------------------|----------------------------------------------------|
----------------------------------------------------|----------------------------------------------------|

----------------------------------------------------|--------------------------0-----2-----------3L------|
--------3-------------------------------------------|--------------------0-------------------------------|
--------------------2-------------------------------|----------------------------------------------------|
----------------------------------------------------|----------------------------------------------------|
----------------------------------------------------|----------------------------------------------------|
----------------------------------------------------|----------------------------------------------------|

--3-------------------------------------------------|-----------------------------------------0L---------|
----------------------------------------------------|--------------------------2-----3-------------------|
----------------------------------------------------|--------------------2-------------------------------|
----------------------------------------------------|----------------------------------------------------|
----------------------------------------------------|----------------------------------------------------|
----------------------------------------------------|----------------------------------------------------|

--0L-0----------------------------------------------|--------------------------------0-----------2L------|
-----2L-2-------------------------------------------|--------------------------3-------------------------|
-----------------2L----------2--0-------------------|--------------------2-------------------------------|
--------------------------------------------4L------|--4-------------------------------------------------|
----------------------------------------------------|----------------------------------------------------|
----------------------------------------------------|----------------------------------------------------|

--2--------------------------------------2----------|--3-----------2-----------0-------------------------|
----------------------------------------------------|--------------------------------3-----------2-------|
----------------------------------------------------|----------------------------------------------------|
----------------------------------------------------|----------------------------------------------------|
----------------------------------------------------|----------------------------------------------------|
----------------------------------------------------|----------------------------------------------------|

--------------------------0-----0-----0-----0L------|--0-------------------------------------------------|
----------------------------------------------------|--------3-------------------------------------------|
----------------------------------------------------|----------------------------------------------------|
----------------------------------------------------|----------------------------------------------------|
----------------------------------------------------|----------------------------------------------------|
----------------------------------------------------|----------------------------------------------------|

-----------------------------------------2----------|--3-----------2-----------0-------------------------|
----------------------------------------------------|--------------------------------3-----------2-------|
----------------------------------------------------|----------------------------------------------------|
----------------------------------------------------|----------------------------------------------------|
----------------------------------------------------|----------------------------------------------------|
----------------------------------------------------|----------------------------------------------------|

--------------------------0-----0-----0-----0L------|--0----------------||
----------------------------------------------------|--------3----------||
----------------------------------------------------|-------------------||
----------------------------------------------------|-------------------||
----------------------------------------------------|-------------------||
----------------------------------------------------|-------------------||
Добавлено: 06.08.2015
Другие материалы по этой песне:
  • Аккорды и текст

Страница создана 12.04.2012
http://primanota.ru/belle-epoque/black-is-black-chords.htm
Привет, Гость.
Предлагаем пройти революционный курс по гитаре.
Подарок от PrimaNota.Ru, забирай!