PrimaNota.ru - самый крупный в мире бесплатный архив песенных текстов, аккордов, табулатур и нот


Belle And Sebastian - Stop Look And Listen - бас-таба, видео

Регистрация Запомнить меня
Войти через:  Facebook Google Twitter Vk Yandex Mail.ru

Belle And Sebastian - Stop Look And Listen - бас-таба, видео

Печатать
Просмотров: 160
Уроки эстрадного вокала в Санкт-Петербурге
BELLE AND SEBASTIAN - STOP, LOOK AND LISTEN
                  ENDING
            (Tabbed by w7w7w7)


This tab is only for the second part (the instrumental ending).



First part                                                   -
G|----------------------------------------------------------| |
D|----------------------------------------------------------| |
A|-------------------5---5---------------------5---5--------| |
E|-0-3-4-5---5-5---3---------0-3-4-5---5-5---3--------------| |
                                                              > x2
G|----------------------------------------------------------| |
D|-5--6-7---7-5h7---5---------------------------0-2---------| |
A|----------------------7-5-------------2-3-2---------2-----| |
E|--------------------------0-3-5---3---------3-------------| |
                                                             -
G|-----------5----------------------------------------------|
D|-2-----3-----3-----2---2----------------------------------|
A|-----2-----------2----------------------------------------|
E|---------------------------0-3-4-5--/5--/5--/5--/5--------|



Second part
G|----------------------------------------------------------|
D|---------------2--------------------7---------------------|
A|----3-------3------2------------7-------5-------5---------|
E|-3------3-------------0-3-4-5---------------5-------------|

G|----------------------------------------------------------|
D|------------2-------2-------------------5-5h7-5-----------|
A|-3-------3------2------0-3--4--5--6--7----------7-5-------|
E|-----3----------------------------------------------------|

G|----------------------------------------------------------|
D|------------2--------------------7------------------------|
A|-3-------3------2------------7-------5-------5------------|
E|-----3-------------0-3-4-5---------------5----------------|

G|--------------------4--4----------------------------------|
D|------5--5-----2--2------2---5h7-7--5h7-7--5h7-7-5--------|
A|-3--3------3---------------------------------------7-6-5--|
E|----------------------------------------------------------|



Third part (= first part w/ different ending)                -
G|----------------------------------------------------------| |
D|----------------------------------------------------------| |
A|-------------------5---5---------------------5---5--------| |
E|-0-3-4-5---5-5---3---------0-3-4-5---5-5---3--------------| |
                                                              > x2
G|----------------------------------------------------------| |
D|-5--6-7---7-5h7---5---------------------------0-2---------| |
A|----------------------7-5-------------2-3-2---------2-----| |
E|--------------------------0-3-5---3---------3-------------| |
                                                             -
G|-----------5------------------------5---------------------|
D|-2-----3-----3-----2------3-----3-----3-----2---5--6------|
A|-----2-----------2-----2------2-----------2---------------|
E|----------------------------------------------------------|

G|----------------------------------------------------------|
D|---5h7-7--5h7-7--5h7-7-7-5---5h7-5------------------------|
A|-7-------------------------7-------7-5--------------------|
E|----------------------------------------------------------|



Fourth part (= second part w/ different ending)
G|----------------------------------------------------------|
D|------------2--------------------7------------------------|
A|-3-------3------2------------7-------5-------5------------|
E|-----3-------------0-3-4-5---------------5----------------|

G|----------------------------------------------------------|
D|------------2-------2-------------------5-5h7-5-----------|
A|-3-------3------2------0-3--4--5--6--7----------7-5-------|
E|-----3----------------------------------------------------|

G|----------------------------------------------------------|
D|------------2--------------------7------------------------|
A|-3-------3------2------------7-------5-------5------------|
E|-----3-------------0-3-4-5---------------5----------------|

G|----------------------------------------------------------|
D|---------------2--2------2--------------------------------|
A|-3--3------3--------2--2-----0-3--4--5--6-0-3--4--5--6----|
E|------3--3------------------------------------------------|



Fifth part (= second part w/ different ending)
G|----------------------------------------------------------|
D|------------2--------------------7------------------------|
A|-3-------3------2------------7-------5-------5------------|
E|-----3-------------0-3-4-5---------------5----------------|

G|----------------------------------------------------------|
D|------------2-------2-------------------5-5h7-5-----------|
A|-3-------3------2------0-3--4--5--6--7----------7-5-------|
E|-----3----------------------------------------------------|

G|----------------------------------------------------------|
D|------------2--------------------7------------------------|
A|-3-------3------2------------7-------5-------5------------|
E|-----3-------------0-3-4-5---------------5----------------|

G|--------------------4-------------------------------------|
D|------5--5-----2--2---------------------------------------|
A|-3--3------3----------------------------------------------|
E|------------------------0-3-4-5--/5--/5--/5--/5-----------|

G|----------------------------------------------------------|
D|----------------------------------------------------------|
A|----------------------------2------------2----------------|
E|-0-3-4-5--/5--/5--/5--/5--3----/5--/5--3----/5--/5---0-5--|
Добавлено: 07.03.2012
Другие материалы по этой песне:
  • Аккорды и текст

Страница создана 07.03.2012
http://primanota.ru/belle-and-sebastian/stop-look-and-listen-chords.htm
Привет, Гость.
Предлагаем пройти революционный курс по гитаре.
Подарок от PrimaNota.Ru, забирай!