PrimaNota.ru - самый крупный в мире бесплатный архив песенных текстов, аккордов, табулатур и нот


Belinda - Vivir - текст песни, таба, видео

Регистрация Запомнить меня
Войти через:  Facebook Google Twitter Vk Yandex Mail.ru

Belinda - Vivir - текст песни, таба, видео

Печатать
Просмотров: 258
INTRO:

GUITARRA 1
  Cm         G#        D#        A#
E------------------------------------------|
A------------------------------------------|
D------------------------------------------|
G------------------------------------------|
B--------4---------4---------4---6-6-6-----|
e--3-3-3-----4-4-4-----3-3-3---------------|

GUITARRA 2 (CON DISTOR)
E------------4-4-4-X-X-----------6-6-6-X-X-|
A--3-3-3-X-X-6-6-6-X-X-6-6-6-X-X-8-8-8-X-X-|
D--5-5-5-X-X-6-6-6-X-X-8-8-8-X-X-8-8-8-X-X-|
G--5-5-5-X-X-----------8-8-8-X-X-----------|
B------------------------------------------|
e------------------------------------------|
GUITARRA 1
  Cm         G#        D#        A#
E------------------------------------------|
A------------------------------------------|
D------------------------------------------|
G------------------------------------------|
B--------4---------4---------4---6-6-------|
e--3-3-3-----4-4-4-----3-3-3---------------|

GUITARRA 2 (CON DISTOR)
E------------4-4-4-X-X-----------6-6-------|
A--3-3-3-X-X-6-6-6-X-X-6-6-6-X-X-8-8-------|
D--5-5-5-X-X-6-6-6-X-X-8-8-8-X-X-8-8-------|
G--5-5-5-X-X-----------8-8-8-X-X-----------|
B------------------------------------------|
e------------------------------------------|
Oh oh oh

D#5         A#5 C5      G#5
 Quiero dormir, no madrugar
D#5          A#5      C5        G#5
 Ya son más de las 10, ¡A despertar!
D#5  A#5 C5      G#5
 Empezar con ilusión
D#5             A#5        C5         G#5
 Vivir en el extremo, plantear algo ideal
Fm        Gm         G#          A#5
A veces quiero gritar y poder volar ia ia ia a a

CORO:
Cm  G#   D#           A#
 Vivir y ser como yo quiero
Cm  G#        D#        A#
 Vivir con el corazón abierto
 C5      A#5  D#5     G#5           F5
 Ven y entenderás, todo lo que yo siento
    A#5
 Yo busco siempre amor de verdad

RIFF
E------------------4--------|
A--6---6-----3---3----------|
D--------8-----5------------|
G----8----------------------|
B---------------------------|
e---------------------------|
Uo ie e

D#5       A#5 C5        G#5
 En la ciudad es todo igual
D#5       A#5         C5         G#5
 No veo entre la gente algo especial
D#5      A#5 C5         G#5
 Mi corazón quiere encontrar
D#5         A#5         C5    G#5
 Alguien sincero que me haga soñar
Fm        Gm         G#         A#
A veces quiero gritar y poder volar ia ia ia a a

CORO:
Cm  G#   D#           A#
 Vivir y ser como yo quiero
Cm  G#        D#        A#
 Vivir con el corazón abierto
 C5      A#5  D#5     G#5           F5
 Ven y entenderás, todo lo que yo siento
    A#5
 Yo busco siempre amor de verdad
RIFF
E------------------4--------|
A--6---6-----3---3----------|
D--------8-----5------------|x2
G----8----------------------|
B---------------------------|
e---------------------------|(El riff continua mientras canta)
Uo uo uo o ie ie ie ie

D#5         A#5        C5           G#5
 Despertar y gritar, sentir en mi la vida
D#5          A#5        C5         G#5
 Arriesgar y apostar, sentir adrenalina

(Debo aceptar mi vida normal

pero yo quiero algo más,

lo sé, pronto llegara)

SOLO:
E----------------------------------------|
A----------------------------------------|
D----------------------------------------|
G----------------------------------------|
B--------4-------4-------4-6-6-6---------|
e--3-3-3---4-4-4---3-3-3-----------------|

E----------------------------------------|
A----------------------------------------|
D----------------------------------------|
G----------------------------------------|
B--------4-------4-------4-6-6-6---------|
e--3-3-3---4-4-4---3-3-3-----------------|

E--------------------------------------------|
A--------------------------------------------|
D--------------------------------------------|
G--------------------------------------------|
B------------4--------6-6-3-----------1------|
e--6-6-6-3-3----6-6-6-------4-4-4-1-1---4-4--|

CORO:
Cm  G#   D#           A#
 Vivir y ser como yo quiero
Cm  G#        D#        A#
 Vivir con el corazón abierto
 C5      A#5  D#5     G#5           F5
 Ven y entenderás, todo lo que yo siento
    G5
 Mi amor es verdadero

Cm  G#   D#           A#
 Vivir y ser como yo quiero
Cm  G#        D#        A#
 Vivir con el corazón abierto
 C5      A#5  D#5     G#5           F5
 Ven y entenderás, todo lo que yo siento
    A#5
 Yo busco siempre amor de verdad

DEFINICION DE ACORDES:
  D#5 A#5 C5 G#5 F5
E--X---6---8---4--1--|
A--6---8--10---6--3--|
D--8---8--10---6--3--|
G--8---X---X---X--X--|
B--X---X---X---X--X--|
e--X---X---X---X--X--|

Créditos: "David Domínguez Gutiérrez"
Добавлено: 24.03.2012
Другие материалы по этой песне:
  • Аккорды и текст

Страница создана 17.03.2012
http://primanota.ru/belinda/vivir-chords.htm
Привет, Гость.
Предлагаем пройти революционный курс по гитаре.
Подарок от PrimaNota.Ru, забирай!