PrimaNota.ru - самый крупный в мире бесплатный архив песенных текстов, аккордов, табулатур и нот


Believer - Wisdoms Call - текст песни, таба, бас-таба, видео

Регистрация Запомнить меня
Войти через:  Facebook Google Twitter Vk Yandex Mail.ru

Believer - Wisdoms Call - текст песни, таба, бас-таба, видео

Печатать
Просмотров: 172
As recorded by Believer
(From the 1991 Album SANITY OBSCURE)

Transcribed by Ibeanez
        



Gtr I (D G C F A D) - 'Rhythm/ Lead 1'
Gtr II (D G C F A D) - 'Rhythm 2'
Gtr III (D G C F A D) - 'Lead 2'

  E=213
 4/4          7/16
  Gtrs I, II
  Wx2          Q..
|------------|-------|
|------------|-------|
|------------|-------|
|------------|-------|
|------------|-------|
|------------|-------|


   4/4
                PM
    S S S S S S S S +S  S S  S S S S  S
||--------------------------------------|
||o-------------------------------------|
||--------------------------------------|
||----------7s8---7-(7)--------7-8-7----|
||o-2-2-2-2-5s6---5-(5)-7-8-10-------10-|
||--0-0-0-0-----0-----------------------|


                                      7/16
      PM----|     PM
  S S S S S S S S S S +S  S S  S S S   S  S S S E.    3x
|------------------------------------|----------------||
|------------------------------------|---------------o||
|------------------------------------|----------------||
|-7-----------7s8---7-(7)--------7-8-|-7----7---6-----||
|---9-2-2-2-2-5s6---5-(5)-7-8-10-----|---10---9-6----o||
|-----0-0-0-0-----0------------------|----------0-----||


 4/4
  Gtr I
  PM----|     PM
  S S S S S S S S +S  S S  S S S S  S
|-------------------------------------|
|-------------------------------------|
|-------------------------------------|
|---------7s8---7-(7)--------7-8-7----|
|-2-2-2-2-5s6---5-(5)-7-8-10-------10-|
|-0-0-0-0-----0-----------------------|
|
| Gtr II
| PM----|     PM
| S S S S S S S S +S  S S  S S S S  S
|-------------------------------------|
|-------------------------------------|
|----------------------------5-6-5----|
|---------7s8---7-(7)-5-6--8--------8-|
|-2-2-2-2-5s6---5-(5)-----------------|
|-0-0-0-0-----0-----------------------|


                                      9/8
      PM----|     PM
  S S S S S S S S S S +S  S S  S S S   S  S S S H..
|------------------------------------|-----------------|
|------------------------------------|-----------------|
|------------------------------------|-----------------|
|-7-----------7s8---7-(7)--------7-8-|-7----7---6------|
|---9-2-2-2-2-5s6---5-(5)-7-8-10-----|---10---9-6------|
|-----0-0-0-0-----0------------------|----------0------|
|
|     PM----|     PM
| S S S S S S S S S S +S  S S  S S S   S  S S S H..
|------------------------------------|-----------------|
|------------------------------------|-----------------|
|-5------------------------------5-6-|-5----5----------|
|---7---------7s8---7-(7)-5-6--8-----|----8---7-6------|
|-----2-2-2-2-5s6---5-(5)------------|----------6------|
|-----0-0-0-0-----0------------------|----------0------|


    Q=118
   4/4
    Gtr I
        PM|     PM|               PM|     PM------------------|
    E E S S E E S S S S S S   E E S S S S S T T S S T T S T T S
||--------------------------|------------------------------------||
||o-------------------------|-----------------------------------o||
||--------------------------|------------------------------------||
||------------------6-------|------------------------------------||
||o-4-2-2-2-7-6-6-6---6-----|-4-2-2-2-7-6-6---------------------o||
||--2-0-0-0-5-4-4-4-----6-0-|-2-0-0-0-5-4-4-4-4-4-4-4-4-4-4-4-4--||


    Gtr I
        PM|     PM|                 PM|     PM------------------|
    E E S S E E S S S S S S    E  E S S S S S T T S S T T S T T S   6x
||--------------------------|---------------------------------------||
||o-------------------------|--------------------------------------o||
||------------------4-------|---------------------------------------||
||--------------------4-----|---------------------------------------||
||o-4-2-2-2-7-6-6-6-----1-4-|-(4)-2-2-2-7-6-6----------------------o||
||--2-0-0-0-5-4-4-4---------|--2--0-0-0-5-4-4-4-4-4-4-4-4-4-4-4-4---||
|
|   Gtr II
|       PM|     PM|                 PM|     PM------------------|
|   E E S S E E S S S S S S    E  E S S S S S T T S S T T S T T S   6x
||--------------------------|---------------------------------------||
||o-------------------------|--------------------------------------o||
||--------------------------|---------------------------------------||
||------------------6-------|---------------------------------------||
||o-4-2-2-2-7-6-6-6---6-----|--4--2-2-2-7-6-6----------------------o||
||--2-0-0-0-5-4-4-4-----6-0-|--2--0-0-0-5-4-4-4-4-4-4-4-4-4-4-4-4---||


    Q=123                   1.                        2.
    Gtrs I, II
      PM|     PM|     PM|     PM|     PM|               PM|     PM|
    E S S E E S S E E S S   E S S E E S S E E S S     E S S E E S S E E E
||------------------------|------------------------||---------------------|
||o-----------------------|-----------------------o||---------------------|
||----------------0-------|------------------------||---------------------|
||--------5-------0-0-----|-------5-------5-4------||-------5-------5-4---|
||o-2-2-2-3-5-----2-x-2-2-|-2-2-2-3-5-----7-6-----o||-2-2-2-3-5-----7-6---|
||--0-0-0---3-0-0---2-0-0-|-0-0-0---3-0-0-----0-0--||-0-0-0---3-0-0-------|


                           1.,2.,3.
      PM|     PM|     PM|     PM|     PM|
    E S S E E S S E E S S   E S S E E S S E E S S  4x
||------------------------|------------------------||
||o-----------------------|-----------------------o||
||----------------0-------|------------------------||
||--------5-------0-0-----|-------5-------5-4------||
||o-2-2-2-3-5-----2-x-2-2-|-2-2-2-3-5-----7-6-----o||
||--0-0-0---3-0-0---2-0-0-|-0-0-0---3-0-0-----0-0--||


  4.
    PM|     PM|
  E S S E E S S E E +E
|---------------------------|
|---------------------------|
|---------------------------|
|-------5-------5-4-(4)\----|
|-2-2-2-3-5-2-2-7-6-(6)\----|
|-0-0-0---3-0-0-------------|


    PM------------|            PM
    S T T T T T T S E  S  +S   S S T T S S T T S
||-----------------------------------------------|
||o----------------------------------------------|
||-----------------------------------------------|
||-----------------------------------------------|
||o-----------------9----------------------------|
||--0-0-0-0-0-0-0-0---11-(11)\-0-3-3-3-3-3-3-3-3-|


  PM------------|
  S T T T T T T S E  E S S S  S S E
|-------------------------------------||
|------------------------------------o||
|-------------------------------------||
|-------------------------------------||
|-----------------9------9---10---9--o||
|-0-0-0-0-0-0-0-0---11-7---7----7-----||


  Gtr I
      PM|     PM|                 PM|     PM------------------|
  E E S S E E S S S S S S    E  E S S S S S T T S S T T S T T S
|-------------------------|-------------------------------------|
|-------------------------|-------------------------------------|
|-----------------4-------|-------------------------------------|
|-------------------4-----|-------------------------------------|
|-4-2-2-2-7-6-6-6-----1-4-|-(4)-2-2-2-7-6-6---------------------|
|-2-0-0-0-5-4-4-4---------|--2--0-0-0-5-4-4-4-4-4-4-4-4-4-4-4-4-|
|
| Gtr II
|     PM|     PM|                 PM|     PM------------------|
| E E S S E E S S S S S S    E  E S S S S S T T S S T T S T T S
|-------------------------|-------------------------------------|
|-------------------------|-------------------------------------|
|-------------------------|-------------------------------------|
|-----------------6-------|-------------------------------------|
|-4-2-2-2-7-6-6-6---6-----|--4--2-2-2-7-6-6---------------------|
|-2-0-0-0-5-4-4-4-----6-0-|--2--0-0-0-5-4-4-4-4-4-4-4-4-4-4-4-4-|


                           1.,2.,3.
    Gtrs I, II
      PM|     PM|     PM|     PM|     PM|
    E S S E E S S E E S S   E S S E E S S E E S S  4x
||------------------------|------------------------||
||o-----------------------|-----------------------o||
||----------------0-------|------------------------||
||--------5-------0-0-----|-------5-------5-4------||
||o-2-2-2-3-5-----2-x-2-2-|-2-2-2-3-5-----7-6-----o||
||--0-0-0---3-0-0---2-0-0-|-0-0-0---3-0-0-----0-0--||


  4.
    PM|     PM|
  E S S E E S S E E +E
|---------------------------|
|---------------------------|
|---------------------------|
|-------5-------5-4-(4)\----|
|-2-2-2-3-5-----7-6-(6)\----|
|-0-0-0---3-0-0-------------|


    PM------------|            PM
    S T T T T T T S E  S  +S   S S T T S S T T S
||-----------------------------------------------|
||o----------------------------------------------|
||-----------------------------------------------|
||-----------------------------------------------|
||o-----------------9----------------------------|
||--0-0-0-0-0-0-0-0---11-(11)\-0-3-3-3-3-3-3-3-3-|


  PM------------|
  S T T T T T T S E  E S S S  S S E   4x
|-------------------------------------||
|------------------------------------o||
|-------------------------------------||
|-------------------------------------||
|-----------------9------9---10---9--o||
|-0-0-0-0-0-0-0-0---11-7---7----7-----||


  Gtr I
  PM------|       PM--|               PM--|   PM------------------|
  S T T S S S S E S S S E E S   +S  E S S S E S T T S S T T S T T S
|-----------------------------|-------------------------------------|
|-----------------------------|-------------------------------------|
|---------------------------7-|-(7)-6-------------------------------|
|-----------------------7-6-5-|-(5)-4-------7-----------------------|
|-----------5-4-5-------5-4---|-----------4-5-----------------------|
|-0-0-0-0-0-3-2-3-0-0-0-------|-------5-7-----2-2-2-2-2-2-2-2-2-2-2-|


    Gtrs I, II
    PM------|       PM--|               PM--|   PM------------------|
    S T T S S S S E S S S E E S   +S  E S S S E S T T S S T T S T T S    4x
||------------------------------|----------------------------------------||
||o-----------------------------|---------------------------------------o||
||----------------------------7-|-(7)-6----------------------------------||
||------------------------7-6-5-|-(5)-4-------7--------------------------||
||o-----------5-4-5-------5-4---|-----------4-5-------------------------o||
||--0-0-0-0-0-3-2-3-0-0-0-------|-------5-7-----2-2-2-2-2-2-2-2-2-2-2----||


  Gtr II
                        PM|      PM  PM
  H    +Q.              S S    E S E S E +H
|---------------------------|--------------------------|
|---------------------------|--------------------------|
|---------------------------|--------------------------|
|-2----(2)------------------|--5-----------------------|
|-2----(2)------------------|--3---5---3-(3)-----------|
|-0----(0)--------------0-0-|----0-3-0-1-(1)-----------|
|
| Gtr I
| ~
| H     S  S  S S  S S  S S    H          Q   E    +E
|---------------------------|--------------------------|
|---------------------------|------------10---9b10r(9)-|
|-9--------9----9----9----9-|-10-----------------------|
|------12----12---12---12---|--------------------------|
|---------------------------|--------------------------|
|---------------------------|--------------------------|


                        PM|       PM       PM
  H    +Q.              S S    E  S  E     S  E +H
|---------------------------|------------------------------------------|
|---------------------------|------------------------------------------|
|---------------------------|------------------------------------------|
|-2----(2)------------------|--5---------------------------------------|
|-2----(2)------------------|--3-----5--------3-(3)--------------------|
|-0----(0)--------------0-0-|-----0--3-----0--1-(1)--------------------|
|
| ~
| H     S  S  S S  S S  S S    E  S  S  S  S  E  S   S  T  S.  S  E.
|---------------------------|---------------------------------10-13----|
|---------------------------|-------------10-12--------10-12-----------|
|-9--------9----9----9----9-|-10----10-12-------10--12-----------------|
|------12----12---12---12---|----12------------------------------------|
|---------------------------|------------------------------------------|
|---------------------------|------------------------------------------|


                                     PM---|         PM  PM
   H    +Q.                          S    S       E S E S E  +H
|----------------------------------------------|-------------------------|
|----------------------------------------------|-------------------------|
|----------------------------------------------|-------------------------|
|--2----(2)------------------------------------|--5----------------------|
|--2----(2)------------------------------------|--3---5---3--(3)---------|
|--0----(0)--------------------------0----0----|----0-3-0-1--(1)---------|
|
|  ~~                                                               ~~~~
|        |--3---|  |--3--|  |--3--|  |---3---|
|  H     S   S  S  S  S  S  S  S  S  S  S    S    H           Q    +Q
|-12-------------------------------------------|-13---------/17---(17)---|
|-----------------10-12-13----------10-11---12-|-------------------------|
|--------9--10-12----------10-12-13------------|-------------------------|
|----------------------------------------------|-------------------------|
|----------------------------------------------|-------------------------|
|----------------------------------------------|-------------------------|


                                                 PM|
   H              +Q.                            S  S
|-----------------------------------------------------|
|-----------------------------------------------------|
|-----------------------------------------------------|
|--2--------------(2)---------------------------------|
|--2--------------(2)---------------------------------|
|--0--------------(0)----------------------------0--0-|
|
|                  |--3---|  |--3--|  |--3---|
|  Q   +E    S  S  S   S  S  S  S  S  S  S  +S   S  S
|-16--(16)\-13-16-13--16----12-13----12-13-(13)-------|
|------------------------15-------15------------15-11-|
|-----------------------------------------------------|
|-----------------------------------------------------|
|-----------------------------------------------------|
|-----------------------------------------------------|


            PM              PM
   E        S    E          S     E      +H
|----------------------------------------------------------------------------|
|----------------------------------------------------------------------------|
|----------------------------------------------------------------------------|
|--5-------------------------------------------------------------------------|
|--3-------------5----------------3------(3)---------------------------------|
|-----------0----3----------0-----1------(1)---------------------------------|
|
|  |--3--|  |---3---|  |---3---|  |-3--|  |--3--|  |--3--|  |--3--|  |-3--|
|  S  S  S  S  S    S  S  S    S  S  S S  S  S  S  S  S  S  S  S  S  S  S S
|----------------------------------------------------------------------------|
|-13-11-10-11-10------10-----------------------------10-11-13-11-10-11-------|
|------------------12----12---10-12-10-9-----9-10-12-------------------10-9--|
|----------------------------------------12----------------------------------|
|----------------------------------------------------------------------------|
|----------------------------------------------------------------------------|


  Gtr II
                                                              PM|
   W                         H.                               S S E
|--------------------------|----------------------------------------|
|--------------------------|----------------------------------------|
|--------------------------|----------------------------------------|
|--2-----------------------|-5--------------------------------------|
|--2-----------------------|-3--------------------------------4-4---|
|--0-----------------------|----------------------------------2-2---|
|
| Gtr I
|  >
| +W                         W
|--------------------------|----------------------------------------|
|--------------------------|----------------------------------------|
|-(9)----------------------|----------------------------------------|
|--------------------------|----------------------------------------|
|--------------------------|----------------------------------------|
|--------------------------|----------------------------------------|
|
| Gtr III
|     PM------|                                       ~
|  |-3--| |-3-|     |-3--|   |-3--| |-3-| |-3-| |-3-|
|  E  E E E E E Q  +E  E E   S  S S S S S S S S S S S E +E  a Q
|--------------------------|----------------------------------------|
|--------------------------|----------------------------------------|
|--------------------------|--------------5-----5-6-8-9-(9)s4-------|
|---------6---5------------|--------5-7-9---7-9---------------------|
|-----7-9---9---7--(7)-5-7-|-5--7-9---------------------------------|
|--------------------------|----------------------------------------|


                                                                              PM-|
  W                                  H.                                       S  S E
|---------------------------------|-----------------------------------------------------|
|---------------------------------|-----------------------------------------------------|
|---------------------------------|-----------------------------------------------------|
|-2-------------------------------|--5--------------------------------------------------|
|-2-------------------------------|--3----------------------------------------4--4------|
|-0-------------------------------|-------------------------------------------2--2------|
|
| W                                  W
|---------------------------------|-----------------------------------------------------|
|---------------------------------|-----------------------------------------------------|
|---------------------------------|-----------------------------------------------------|
|---------------------------------|-----------------------------------------------------|
|---------------------------------|-----------------------------------------------------|
|---------------------------------|-----------------------------------------------------|
|
|                                                                             ~~~~
| |--3--|  |--3--|       |--3---|    |--3---|  |--3---|    |------3------|
| E  E  E  E  E  E  Q   +E   E  E    E   E  E  E  E  +E   +E       +E   +E   +Q
|---------14-12-14-12--(12)-14-12-|-14--12-14-12-14-(14)-(14)b15==(14)-(14)r(14)--------|
|------13-------------------------|-----------------------------------------------------|
|---12----------------------------|-----------------------------------------------------|
|---------------------------------|-----------------------------------------------------|
|---------------------------------|-----------------------------------------------------|
|---------------------------------|-----------------------------------------------------|


  Gtr II
                                                                  PM--|
    W                                     H.                      S   S E
|--------------------------------------|----------------------------------|
|--------------------------------------|----------------------------------|
|--------------------------------------|----------------------------------|
|---2----------------------------------|--5-------------------------------|
|---2----------------------------------|--3-----------------------4---4---|
|---0----------------------------------|--------------------------2---2---|
|
| Gtr III
|                                                            ~~
|   |--3--|  |---3----|       |--3---|    |--3---|  |--3--|
|   e  E  E  E     E  E  Q   +E   E  E    E   E  E  E  E  E  Q   +Q
|-/19-19-20-20b22r20-19-20--(20)-19-20-|-19--17-19-17-15-17-15--(15)\-----|
|--------------------------------------|----------------------------------|
|--------------------------------------|----------------------------------|
|--------------------------------------|----------------------------------|
|--------------------------------------|----------------------------------|
|--------------------------------------|----------------------------------|


                                                       PM|
  W                                   H.               S  S  E
|-----------------------------------|------------------------------------|
|-----------------------------------|------------------------------------|
|-----------------------------------|------------------------------------|
|-2---------------------------------|-5----------------------------------|
|-2---------------------------------|-3----------------4--4--------------|
|-0---------------------------------|------------------2--2--------------|
|
| |--3--| |--3--|  |--3--|  |--3--|   |--3---| |-3--|  |--3--|  |--3--|
| E  E  E E  E  E  E  E  E  E  E  E   E   E  E E  E E  E  E  E  E  E  E
|------10-8-------------------------|----------8-10-8--------------------|
|---12------12-10----------10-------|-------12--------12-10--------------|
|-9---------------12-11-12----12-11-|-9--12-----------------12-11-12-11--|
|-----------------------------------|------------------------------------|
|-----------------------------------|------------------------------------|
|-----------------------------------|------------------------------------|


  Gtrs I, II
  PM----------------|       PM--|               PM--|   PM--------|
  S  T      T   S   S S S E S S S E E S   +S  E S S S E S T T S S E E
|---------------------------------------|-----------------------------|
|---------------------------------------|-----------------------------|
|-------------------------------------7-|-(7)-6-----------------------|
|---------------------------------7-6-5-|-(5)-4-------7---------------|
|---------------------5-4-5-------5-4---|-----------4-5-----------4---|
|-0--0------0---0---0-3-2-3-0-0-0-------|-------5-7-----2-2-2-2-2-2---|
|
| Gtr III
| S +S     +E  +Q           H              W
|---------------------------------------|-----------------------------|
|---------------------------------------|-----------------------------|
|-9-(9)b12r(9)-(9)\---------------------|-----------------------------|
|---------------------------------------|-----------------------------|
|---------------------------------------|-----------------------------|
|---------------------------------------|-----------------------------|


                            1.,2.,3.                  4.
    Gtrs I, II
      PM|     PM|     PM|     PM|     PM|               PM|     PM|
    E S S E E S S E E S S   E S S E E S S E E S S  4x E S S E E S S E E +E
||------------------------|------------------------||--------------------------|
||o-----------------------|-----------------------o||--------------------------|
||----------------0-------|------------------------||--------------------------|
||--------5-------0-0-----|-------5-------5-4------||-------5-------5-4-(4)\---|
||o-2-2-2-3-5-----2-x-2-2-|-2-2-2-3-5-----7-6-----o||-2-2-2-3-5-----7-6-(6)\---|
||--0-0-0---3-0-0---2-0-0-|-0-0-0---3-0-0-----0-0--||-0-0-0---3-0-0------------|


    PM------------|            PM
    S T T T T T T S E  S  +S   S S T T S S T T S
||-----------------------------------------------|
||o----------------------------------------------|
||-----------------------------------------------|
||-----------------------------------------------|
||o-----------------9----------------------------|
||--0-0-0-0-0-0-0-0---11-(11)\-0-3-3-3-3-3-3-3-3-|


  PM------------|
  S T T T T T T S E  E S S S  S S E   4x
|-------------------------------------||
|------------------------------------o||
|-------------------------------------||
|-------------------------------------||
|-----------------9------9---10---9--o||
|-0-0-0-0-0-0-0-0---11-7---7----7-----||


  PM------|       PM--|               PM--|   PM------------------|
  S T T S S S S E S S S E E S   +S  E S S S E S T T S S T T S T T S
|-----------------------------|----------------------------------------*|
|-----------------------------|----------------------------------------*|
|---------------------------7-|-(7)-6----------------------------------*|
|-----------------------7-6-5-|-(5)-4-------7--------------------------*|
|-----------5-4-5-------5-4---|-----------4-5--------------------------*|
|-0-0-0-0-0-3-2-3-0-0-0-------|-------5-7-----2-2-2-2-2-2-2-2-2-2-2----*|



Duration Legend
---------------
W - whole; H - half; Q - quarter; E - 8th; S - 16th; T - 32nd; X - 64th; a - acciaccatura
+ - note tied to previous; . - note dotted; .. - note double dotted
Uncapitalized letters represent notes that are staccato (1/2 duration)
Irregular groupings are notated above the duration line
Duration letters will always appear directly above the note/fret number it represents the
duration for.  Duration letters with no fret number below them represent rests.  Multi-
bar rests are notated in the form Wxn, where n is the number of bars to rest for.  Low
melody durations appear below the staff

Tablature Legend
----------------
 h   - hammer-on
 p   - pull-off
 b   - bend
 pb  - pre-bend
 r   - bend release (if no number after the r, then release immediately)
 /\  - slide into or out of (from/to "nowhere")
 s   - legato slide
 S   - shift slide
 - natural harmonic
[n]  - artificial harmonic
n(n) - tapped harmonic
 ~   - vibrato
 tr  - trill
 T   - tap
 TP  - trem. picking
 PM  - palm muting
\n/  - tremolo bar dip; n = amount to dip
 \n  - tremolo bar down
 n/  - tremolo bar up
/n\  - tremolo bar inverted dip
 =   - hold bend; also acts as connecting device for hammers/pulls
 <> - volume swell (louder/softer)
 x   - on rhythm slash represents muted slash
 o   - on rhythm slash represents single note slash

Misc Legend
-----------
 |  - bar
||  - double bar
||o - repeat start
o|| - repeat end
*|  - double bar (ending)
 :  - bar (freetime)
 $  - Segno
 &  - Coda
Tempo markers -  = BPM(8/16=s8/s16), where s8 = swing 8ths, s16 = swing 16ths

Добавлено: 10.04.2012
Другие материалы по этой песне:

Страница создана 15.03.2012
http://primanota.ru/believer/wisdoms-call-chords.htm
Привет, Гость.
Предлагаем пройти революционный курс по гитаре.
Подарок от PrimaNota.Ru, забирай!