PrimaNota.ru - самый крупный в мире бесплатный архив песенных текстов, аккордов, табулатур и нот


Believer - Nonpoint - текст песни, таба, бас-таба, видео

Регистрация Запомнить меня
Войти через:  Facebook Google Twitter Vk Yandex Mail.ru

Believer - Nonpoint - текст песни, таба, бас-таба, видео

Печатать
Просмотров: 176
As recorded by Believer
(From the 1990 Album SANITY OBSCURE)

Transcribed by Ibeanez
        

Words and Music by Bachman, Daub, Baddorf, Robertson


Gtr I (E A D G B E) - 'Acoustic'
Gtr II (D G C F A D) - 'Rhythm 1'
Gtr III (D G C F A D) - 'Rhythm 2'
Gtr IV (D G C F A D) - 'Lead 1'
Gtr V (D G C F A D) - 'Lead 2'

    Q=65
   4/4
    Gtr I
    S S S S S S S S S S S S S S S S   S S S S S S S S S S S S S S S S
||----------------------------------|----------------------------------|
||o---------3-----4-----4-----4-----|---------3-----4-----4-----4------|
||------3-----3-----3-----3-----3---|-----3-----3-----3-----3-----3----|
||----5---5-----5-----5-----5-----5-|---5---5-----5-----5-----5--------|
||o---------------------------------|-------------------------------3S=|
||--3-------------------------------|-3--------------------------------|


                                                          Q=115
                                     4/4
  S S S S S S S S S S S S S S S S  3x S S S S S S S S +H    +W
|----------------------------------||---------------------|--------|
|---3-----3-----3-----3-----3-----o||---------3-----4-(4)-|-(4)----|
|-----4-----4-----4-----4-----4----||-----3-----3---------|--------|
|-------6-----6-----6-----6-----6--||---5---5-----5-------|--------|
|-6-------------------------------o||---------------------|--------|
|----------------------------------||-3-------------------|--------|


   4/4                        9/8
    Gtr II
    PM----------|        PM|     PM|   PM|
    S S S S S S S S Q  E S S   E S S S S S S Q  S S S S E
||---------------------------|-----------------------------|
||o--------------------------|-----------------------------|
||----------------5----------|-------5-----5--------5------|
||----------------5----------|-------5-----5------4---4----|
||o-0-0-0-0-0-0-0--------0-0-|---0-0---0-0-----------------|
||---------------------------|-----------------------------|


 4/4
  PM----------|        PM|     PM|   PM|
                                             |-3-| |-3-|
  S S S S S S S S Q  E S S   E S S S S S S E S S S S S S E
|--------------------------|--------------------------------||
|--------------------------|-------------------------------o||
|---------------5----------|-------5-----5---------2-4-5----||
|---------------5----------|-------5-----5---2-4-5----------||
|-0-0-0-0-0-0-0--------0-0-|---0-0---0-0-------------------o||
|--------------------------|--------------------------------||


   4/4                               9/8
    Gtr II
    PM----------|               PM|       PM|   PM|
    S S S S S S S S Q       E   S S   E   S S S S S S Q       S S S S E
||----------------------------------|-----------------------------------|
||o---------------------------------|-----------------------------------|
||----------------5-----------------|---------5-----5-------------5-----|
||----------------5-----------------|---------5-----5-----------4---4---|
||o-0-0-0-0-0-0-0---------------0-0-|-----0-0---0-0---------------------|
||----------------------------------|-----------------------------------|
|
|   Gtr III
|   PM----------|   PM----------------------|   PM|   PM------|
|   S S S S S S S S S S S S S S S S   S S S S S S S S S S S S S S S S E
||----------------------------------|-----------------------------------|
||o---------------------------------|-----------------------------------|
||----------------5-----------------|---------5-----5-------------5-----|
||----------------5-----------------|---------5-----5-----------4---4---|
||o-0-0-0-0-0-0-0---0-0-0-0-0-0-0-0-|-0-0-0-0---0-0---0-0-0-0-0---------|
||----------------------------------|-----------------------------------|


 4/4
  PM----------|               PM|       PM|   PM|
                                                        |-3-| |-3-|
  S S S S S S S S Q       E   S S   E   S S S S S S E   S S S S S S E
|---------------------------------|------------------------------------||
|---------------------------------|-----------------------------------o||
|---------------5-----------------|---------5-----5-----------2-4-5----||
|---------------5-----------------|---------5-----5-----2-4-5----------||
|-0-0-0-0-0-0-0---------------0-0-|-----0-0---0-0---------------------o||
|---------------------------------|------------------------------------||
|
| PM----------|   PM----------------------|   PM|   PM|
|                                                       |-3-| |-3-|
| S S S S S S S S S S S S S S S S   S S S S S S S S S S S S S S S S E
|---------------------------------|------------------------------------||
|---------------------------------|-----------------------------------o||
|---------------5-----------------|---------5-----5-----------2-4-5----||
|---------------5-----------------|---------5-----5-----2-4-5----------||
|-0-0-0-0-0-0-0---0-0-0-0-0-0-0-0-|-0-0-0-0---0-0---0-0---------------o||
|---------------------------------|------------------------------------||


 4/4                                   5/8
  PM----|                               PM--|
              |-3-|
  S S S S S S S S S  S S S S  S S S S   S S S S S S S S S S
|-------------------------------------|---------------------|
|-------------------------------------|---------------------|
|-------------7h8p7-------------7-8-7-|-------6-5-------7---|
|---------7-8-------10-8-7-8-10-------|-----------6---7-----|
|-0-0-0-0-----------------------------|-0-0-0-------7-------|
|-------------------------------------|---------------------|
|
| W                                     S Q       S S S S S
|-------------------------------------|---------------------|
|-------------------------------------|---------------------|
|-------------------------------------|-2-----------2---2---|
|-------------------------------------|-2-----------2---2---|
|-------------------------------------|-0-----------0---0---|
|-------------------------------------|---------------------|


   4/4                                   9/16
    Gtrs II, III
    PM----|                               PM--|
                |-3-|
    S S S S S S S S S  S S S S  S S S S   S S S S S S S S S  4x
||--------------------------------------|--------------------||
||o-------------------------------------|-------------------o||
||--------------7h8p7-------------7-8-7-|-------6-5-------7--||
||----------7-8-------10-8-7-8-10-------|-----------6---7----||
||o-0-0-0-0-----------------------------|-0-0-0-------7-----o||
||--------------------------------------|--------------------||


 4/4
  Gtr II
  PM----------------------|      PM
  S T T S S S S S S S S S S Q    E E +Q   Q  Q
|------------------------------|----------------|
|------------------------------|----------------|
|---------------5-5-------5----|----------------|
|-2-2-2-2-2-2-2-3-3-3-3-3-3----|-2-7-(7)--5--3--|
|-0-0-0-0-0-0-0-----4-4-4-4----|-0-5-(5)--3--1--|
|------------------------------|----------------|
|
| Gtr III
|                                PM
| W                              E E +Q   Q  Q
|------------------------------|----------------|
|------------------------------|----------------|
|------------------------------|----------------|
|------------------------------|-2-7-(7)--5--3--|
|------------------------------|-0-5-(5)--3--1--|
|------------------------------|----------------|


    Gtrs II, III
    PM----------------------|      PM
    S T T S S S S S S S S S S Q    E E +Q   Q  Q  3x
||-------------------------------|----------------||
||o------------------------------|---------------o||
||----------------5-5-------5----|----------------||
||--2-2-2-2-2-2-2-3-3-3-3-3-3----|-2-7-(7)--5--3--||
||o-0-0-0-0-0-0-0-----4-4-4-4----|-0-5-(5)--3--1-o||
||-------------------------------|----------------||


    PM|    PM   PM|    PM  PM|
                               |-3--|
    S S  S S  S S S  S S S S S S  S S S  S
||-----------------------------------------|
||o----------------------------------------|
||-----------------------------------------|
||------14---12-----10---9-----9h10p9-7----|
||o-0-0----0----0-0----0---0-0----------10-|
||-----------------------------------------|


 6/4
  PM|    PM   PM--|
  S S  S S  S S S S  S S +S  S S +S  S S +S  S S +S  E E    4x
|-----------------------------------------------------------||
|----------------------------------------------------------o||
|--------------------9s8-(8)-8s7-(7)-7s6-(6)-6s5-(5)-4-5----||
|-----14---12-------10s9-(9)-9s8-(8)-8s7-(7)-7s6-(6)-5-6----||
|-0-0----0----0-0-0----------------------------------------o||
|-----------------------------------------------------------||


   4/4                                   9/16
    PM----|                               PM--|
                |-3-|
    S S S S S S S S S  S S S S  S S S S   S S S S S S S S S  4x
||--------------------------------------|--------------------||
||o-------------------------------------|-------------------o||
||--------------7h8p7-------------7-8-7-|-------6-5-------7--||
||----------7-8-------10-8-7-8-10-------|-----------6---7----||
||o-0-0-0-0-----------------------------|-0-0-0-------7-----o||
||--------------------------------------|--------------------||


 4/4
  Gtr II
  PM----------------------|      PM
  S T T S S S S S S S S S S Q    E E +Q   Q  Q
|------------------------------|---------------|
|------------------------------|---------------|
|---------------5-5-------5----|---------------|
|-2-2-2-2-2-2-2-3-3-3-3-3-3----|-2-7-(7)--5--3-|
|-0-0-0-0-0-0-0-----4-4-4-4----|-0-5-(5)--3--1-|
|------------------------------|---------------|
|
| Gtr III
|                                PM
| W                              E E +Q   Q  Q
|------------------------------|---------------|
|------------------------------|---------------|
|------------------------------|---------------|
|------------------------------|-2-7-(7)--5--3-|
|------------------------------|-0-5-(5)--3--1-|
|------------------------------|---------------|


    Gtrs II, III
    PM----------------------|      PM
    S T T S S S S S S S S S S Q    E E +Q   Q  Q  3x
||-------------------------------|----------------||
||o------------------------------|---------------o||
||----------------5-5-------5----|----------------||
||--2-2-2-2-2-2-2-3-3-3-3-3-3----|-2-7-(7)--5--3--||
||o-0-0-0-0-0-0-0-----4-4-4-4----|-0-5-(5)--3--1-o||
||-------------------------------|----------------||


    PM|    PM   PM|    PM  PM|
                               |-3--|
    S S  S S  S S S  S S S S S S  S S S  S
||-----------------------------------------|
||o----------------------------------------|
||-----------------------------------------|
||------14---12-----10---9-----9h10p9-7----|
||o-0-0----0----0-0----0---0-0----------10-|
||-----------------------------------------|


 6/4
  PM|    PM   PM--|
  S S  S S  S S S S  S S +S  S S +S  S S +S  S S +S  E E    4x
|-----------------------------------------------------------||
|----------------------------------------------------------o||
|--------------------9s8-(8)-8s7-(7)-7s6-(6)-6s5-(5)-4-5----||
|-----14---12-------10s9-(9)-9s8-(8)-8s7-(7)-7s6-(6)-5-6----||
|-0-0----0----0-0-0----------------------------------------o||
|-----------------------------------------------------------||


 4/4                                   5/8
  PM----|                               PM--|
              |-3-|
  S S S S S S S S S  S S S S  S S S S   S S S S S S S S S S
|-------------------------------------|---------------------|
|-------------------------------------|---------------------|
|-------------7h8p7-------------7-8-7-|-------6-5-------7---|
|---------7-8-------10-8-7-8-10-------|-----------6---7-----|
|-0-0-0-0-----------------------------|-0-0-0-------7-------|
|-------------------------------------|---------------------|


   4/4                               7/8
    PM--|             PM----|   PM|     PM             PM--|         PM-
    S S S S S S S S S S S S S S S S   S S  S S  S  +S  S S S S S S S S
||----------------------------------|----------------------------------|
||o---------------------------------|----------------------------------|
||----------------------------------|----------------------------------|
||--------7-8-7---7-8---------------|----------------------------------|
||o-0-0-0-------8-----0-0-0---8-----|-7---10---10-(10)-------5-4-5-4---|
||--------------------------8---8-7-|---7--8----8--(8)-6-6-6---------6-|


 4/4
 -----|         PM-----------------|
  S S S S S S S S  S  S  S S S S S S   4x
|--------------------------------------||
|-------------------------------------o||
|--------------------------------------||
|-------7-8-7--------------------------||
|-0-0-0-------8-0-10-10-10-5-5-5-8-8--o||
|------------------8--8--8-3-3-3-6-6---||


   4/4
    PM----------|        PM|     PM------|       PM----|
    S S S S S S S S Q  E S S   E S S S S S S +E  S S S S E
||---------------------------|-----------------------------|
||o--------------------------|-----------------------------|
||---------------------------|-----------------------------|
||--2-2-2-2-2-2-2-2------2-2-|---4-4-4-4-4-4-(4)-----------|
||o-0-0-0-0-0-0-0-0------0-0-|---2-2-2-2-2-2-(2)-3-3-3-3-3-|
||---------------------------|-------------------1-1-1-1-1-|


  PM----------|        PM|     PM------|       PM----|
  S S S S S S S S Q  E S S   E S S S S S S +E  S S S S E
|--------------------------|-------------------------------||
|--------------------------|------------------------------o||
|--------------------------|-------------------------------||
|-2-2-2-2-2-2-2-2------2-2-|---4-4-4-4-4-4-(4)-------------||
|-0-0-0-0-0-0-0-0------0-0-|---2-2-2-2-2-2-(2)-5-5-5-5-5--o||
|--------------------------|-------------------3-3-3-3-3---||


  Gtrs II, III
  PM------------|             PM|
  S S S S  S  S  S  S  Q    E S S
|---------------------------------|
|---------------------------------|
|---------------------------------|
|-2-2-2-2--2--2--2--2---------2-2-|
|-0-0-0-0--0--0--0--0---------0-0-|
|---------------------------------|
|
| Gtr IV
| H     S  S  S  S  S  S  S S
|-------------------8-------------|
|---------------10----10----------|
|-------------9-----------9-7-----|
|---------10----------------------|
|---------------------------------|
|---------------------------------|
|
| Gtr V
| H     S  S  S  S  S  S  S S
|---------------------------------|
|---------------------------------|
|----------------9-10--9----------|
|------------10----------10-9-----|
|---------12----------------------|
|---------------------------------|


     PM------|          PM------|
  E  S S S S   S  S +E  S  S  S   S  E
|--------------------------------------------------|
|--------------------------------------------------|
|--------------------------------------------------|
|----4-4-4-4---4--4-(4)----------------------------|
|----2-2-2-2---2--2-(2)-3--3--3---3--3-------------|
|-----------------------1--1--1---1--1-------------|
|
|    ~~                                        ~
|    Q        +E     S  S +E      S  S  +E   S S
|--------------------------------/8----------------|
|-----------------------------------10-(10)-10-9---|
|----9--------(9)----9--7-(7)----------------------|
|--------------------------------------------------|
|--------------------------------------------------|
|--------------------------------------------------|
|
|    ~~                                        ~
|    Q        +E     S  S +E      S  S  +E   S S
|--------------------------------------------------|
|--------------------------------------------------|
|-------------------------------/12-10-(10)-10-9---|
|---10-------(10)---10--9-(9)----------------------|
|--------------------------------------------------|
|--------------------------------------------------|


   PM-----------|                       PM|
   S  S S S S S S S  Q            E     S S
|-------------------------------------------|
|-------------------------------------------|
|-------------------------------------------|
|--2--2-2-2-2-2-2-2---------------------2-2-|
|--0--0-0-0-0-0-0-0---------------------0-0-|
|-------------------------------------------|
|
|  ~~~~~~~~~~~~~~~~~~~~~
| +H                +S   S  S  S  S  S  S S
|---------------------------------8---------|
|-(9)---------------(9)-------10----10------|
|---------------------------9-----------9-7-|
|-----------------------10------------------|
|-------------------------------------------|
|-------------------------------------------|
|
|  ~~~~~~~~~~~~~~~~~~~~~
| +H                +S   S  S  S  S  S  S S
|-------------------------------------------|
|-------------------------------------------|
|-(9)---------------(9)--------9-10--9------|
|--------------------------10----------10-9-|
|-----------------------12------------------|
|-------------------------------------------|


     PM---------|           PM--------|
   E S S   S  S  S  S  +E   S  S   S  S  E
|----------------------------------------------|
|----------------------------------------------|
|----------------------------------------------|
|----4-4---4--4--4--4--(4)---------------------|
|----2-2---2--2--2--2--(2)--5--5---5--5--5-----|
|---------------------------3--3---3--3--3-----|
|
|  ~~            PM                         ~~
|  Q      +E     S  S  +E   S  S  +E     S  S
|----------------7-10-(10)-13-12-(12)---12-----|
|------------------------------------------13--|
|--9------(9)----------------------------------|
|----------------------------------------------|
|----------------------------------------------|
|----------------------------------------------|
|
|  ~~            PM                         ~~
|  Q      +E     S  S  +E   S  S  +E     S  S
|-------------------7--(7)-10--8--(8)---10-----|
|---------------10-------------------------10--|
|----------------------------------------------|
|-10-----(10)----------------------------------|
|----------------------------------------------|
|----------------------------------------------|


    PM-----------|                        PM|
    S  S S S S S S S   Q            E     S  S
|----------------------------------------------|
|----------------------------------------------|
|----------------------------------------------|
|---2--2-2-2-2-2-2-2----------------------2--2-|
|---0--0-0-0-0-0-0-0----------------------0--0-|
|----------------------------------------------|
|
|   ~~~~~~~~~~~~~~~~~~~~~~
|  +H                 +S   S  S  S  S  S  S  S
|-------------------------------17-20-17-------|
|-(13)---------------(13)----17----------------|
|-------------------------17-------------17-19-|
|----------------------------------------------|
|----------------------------------------------|
|----------------------------------------------|
|
|   ~~~~~~~~~~~~~~~~~~~~~~
|  +H                 +S   S  S  S  S  S  S  S
|-------------------------------12-13-12-------|
|-(10)---------------(10)----13----------13-12-|
|-------------------------14-------------------|
|----------------------------------------------|
|----------------------------------------------|
|----------------------------------------------|


     PM---------|            PM--------|
   E S S   S  S  S  S  +E    S  S   S  S  E
|-----------------------------------------------|
|-----------------------------------------------|
|-----------------------------------------------|
|----4-4---4--4--4--4--(4)----------------------|
|----2-2---2--2--2--2--(2)---3--3---3--3--3-----|
|----------------------------1--1---1--1--1-----|
|
|  ~~                                        ~~
|  Q      +E     S  S  +E    S  S  +E     S  S
|--------------------------/20-18-(18)---18-17--|
|-17-----(17)---17------------------------------|
|------------------19-(19)----------------------|
|-----------------------------------------------|
|-----------------------------------------------|
|-----------------------------------------------|
|
|  ~~                                        ~~
|  Q      +E     S  S  +E    S  S  +E     S  S
|--------------------------/15-13-(13)---13-12--|
|-13-----(13)---13-12-(12)----------------------|
|-----------------------------------------------|
|-----------------------------------------------|
|-----------------------------------------------|
|-----------------------------------------------|


    PM-----------|                        PM|
    S  S S S S S S S   Q            E     S  S
|----------------------------------------------|
|----------------------------------------------|
|----------------------------------------------|
|---2--2-2-2-2-2-2-2----------------------2--2-|
|---0--0-0-0-0-0-0-0----------------------0--0-|
|----------------------------------------------|
|
|   ~~~~~~~~~~~~~~~~~~~~~~
|  +H                 +S   S  S  S  S  S  S  S
|-(17)---------------(17)-------17-20-17-------|
|----------------------------17----------------|
|-------------------------17-------------17-19-|
|----------------------------------------------|
|----------------------------------------------|
|----------------------------------------------|
|
|   ~~~~~~~~~~~~~~~~~~~~~~
|  +H                 +S   S  S  S  S  S  S  S
|-(12)---------------(12)-------12-13-12-------|
|----------------------------13----------13-12-|
|-------------------------14-------------------|
|----------------------------------------------|
|----------------------------------------------|
|----------------------------------------------|


     PM---------|           PM-----------|
   E S S   S  S  S  S  +E   S     S   S  S  E
|----------------------------------------------------|
|----------------------------------------------------|
|----------------------------------------------------|
|----4-4---4--4--4--4--(4)---------------------------|
|----2-2---2--2--2--2--(2)--5-----5---5--5--5--------|
|---------------------------3-----3---3--3--3--------|
|
|  ~~                                             ~~
|  Q      +E     S  S  +E   S     S  +E     S     S
|---------------20-22-(22)-24b26r24-(24)---24b26-20--|
|-17-----(17)----------------------------------------|
|----------------------------------------------------|
|----------------------------------------------------|
|----------------------------------------------------|
|----------------------------------------------------|
|
|  ~~                                             ~~
|  Q      +E     S  S  +E   S     S  +E     S     S
|---------------20-19-(19)-20b22r20-(20)---20b22-17--|
|-13-----(13)----------------------------------------|
|----------------------------------------------------|
|----------------------------------------------------|
|----------------------------------------------------|
|----------------------------------------------------|


    PM-----------|        PM|        PM------|       PM----|
    S  S S S S S S S Q  E S S     E  S S S S S S +E  S S S S E
|-----------------------------|---------------------------------|
|-----------------------------|---------------------------------|
|-----------------------------|---------------------------------|
|---2--2-2-2-2-2-2-2------2-2-|------4-4-4-4-4-4-(4)------------|
|---0--0-0-0-0-0-0-0------0-0-|------2-2-2-2-2-2-(2)-3-3-3-3-3--|
|-----------------------------|----------------------1-1-1-1-1--|
|
|   ~~~~~~~~~~~~~~~~~~~~~~~~~~~~~~~~~
|  +W                            +W
|-(20)------------------------|-(20)----------------------------|
|-----------------------------|---------------------------------|
|-----------------------------|---------------------------------|
|-----------------------------|---------------------------------|
|-----------------------------|---------------------------------|
|-----------------------------|---------------------------------|
|
|   ~~~~~~~~~~~~~~~~~~~~~~~~~~~~~~~~~
|  +W                            +W
|-(17)------------------------|-(17)----------------------------|
|-----------------------------|---------------------------------|
|-----------------------------|---------------------------------|
|-----------------------------|---------------------------------|
|-----------------------------|---------------------------------|
|-----------------------------|---------------------------------|


  Gtr II
  PM----------------------|      PM
  S T T S S S S S S S S S S Q    E E +Q   Q  Q
|------------------------------|----------------|
|------------------------------|----------------|
|---------------5-5-------5----|----------------|
|-2-2-2-2-2-2-2-3-3-3-3-3-3----|-2-7-(7)--5--3--|
|-0-0-0-0-0-0-0-----4-4-4-4----|-0-5-(5)--3--1--|
|------------------------------|----------------|
|
| Gtr III
|                                PM
| W                              E E +Q   Q  Q
|------------------------------|----------------|
|------------------------------|----------------|
|------------------------------|----------------|
|------------------------------|-2-7-(7)--5--3--|
|------------------------------|-0-5-(5)--3--1--|
|------------------------------|----------------|


    Gtrs II, III
    PM----------------------|      PM
    S T T S S S S S S S S S S Q    E E +Q   Q  Q   3x
||-------------------------------|-----------------||
||o------------------------------|----------------o||
||----------------5-5-------5----|-----------------||
||--2-2-2-2-2-2-2-3-3-3-3-3-3----|-2-7-(7)--5--3---||
||o-0-0-0-0-0-0-0-----4-4-4-4----|-0-5-(5)--3--1--o||
||-------------------------------|-----------------||


 4/4                                   5/8
  Gtr II
  PM----|                               PM--|
              |-3-|
  S S S S S S S S S  S S S S  S S S S   S S S S S S S S S S
|-------------------------------------|---------------------|
|-------------------------------------|---------------------|
|-------------7h8p7-------------7-8-7-|-------6-5-------7---|
|---------7-8-------10-8-7-8-10-------|-----------6---7-----|
|-0-0-0-0-----------------------------|-0-0-0-------7-------|
|-------------------------------------|---------------------|
|
| Gtr III
| W                                     S Q       S S S S S
|-------------------------------------|---------------------|
|-------------------------------------|---------------------|
|-------------------------------------|-2-----------2---2---|
|-------------------------------------|-2-----------2---2---|
|-------------------------------------|-0-----------0---0---|
|-------------------------------------|---------------------|


   4/4                                   9/16
    Gtrs II, III
    PM----|                               PM--|
                |-3-|
    S S S S S S S S S  S S S S  S S S S   S S S S S S S S S  4x
||--------------------------------------|--------------------||
||o-------------------------------------|-------------------o||
||--------------7h8p7-------------7-8-7-|-------6-5-------7--||
||----------7-8-------10-8-7-8-10-------|-----------6---7----||
||o-0-0-0-0-----------------------------|-0-0-0-------7-----o||
||--------------------------------------|--------------------||


 4/4
  Gtr II
  PM----------------------|      PM
  S T T S S S S S S S S S S Q    E E +Q   Q  Q
|------------------------------|---------------|
|------------------------------|---------------|
|---------------5-5-------5----|---------------|
|-2-2-2-2-2-2-2-3-3-3-3-3-3----|-2-7-(7)--5--3-|
|-0-0-0-0-0-0-0-----4-4-4-4----|-0-5-(5)--3--1-|
|------------------------------|---------------|
|
| Gtr III
|                                PM
| W                              E E +Q   Q  Q
|------------------------------|---------------|
|------------------------------|---------------|
|------------------------------|---------------|
|------------------------------|-2-7-(7)--5--3-|
|------------------------------|-0-5-(5)--3--1-|
|------------------------------|---------------|


    Gtrs II, III
    PM----------------------|      PM
    S T T S S S S S S S S S S Q    E E +Q   Q  Q   3x
||-------------------------------|-----------------||
||o------------------------------|----------------o||
||----------------5-5-------5----|-----------------||
||--2-2-2-2-2-2-2-3-3-3-3-3-3----|-2-7-(7)--5--3---||
||o-0-0-0-0-0-0-0-----4-4-4-4----|-0-5-(5)--3--1--o||
||-------------------------------|-----------------||


    PM|    PM   PM|    PM  PM|
                               |-3--|
    S S  S S  S S S  S S S S S S  S S S  S
||-----------------------------------------|
||o----------------------------------------|
||-----------------------------------------|
||------14---12-----10---9-----9h10p9-7----|
||o-0-0----0----0-0----0---0-0----------10-|
||-----------------------------------------|


 6/4
  PM|    PM   PM--|
  S S  S S  S S S S  S S +S  S S +S  S S +S  S S +S  E E    4x
|-----------------------------------------------------------||
|----------------------------------------------------------o||
|--------------------9s8-(8)-8s7-(7)-7s6-(6)-6s5-(5)-4-5----||
|-----14---12-------10s9-(9)-9s8-(8)-8s7-(7)-7s6-(6)-5-6----||
|-0-0----0----0-0-0----------------------------------------o||
|-----------------------------------------------------------||


 4/4                                   5/8
  Gtr II
  PM----|                               PM--|
              |-3-|
  S S S S S S S S S  S S S S  S S S S   S S S S S  S S S  S S
|-------------------------------------|-----------------------*|
|-------------------------------------|-----------------------*|
|-------------7h8p7-------------7-8-7-|-------9-8--------10---*|
|---------7-8-------10-8-7-8-10-------|-----------10---9------*|
|-0-0-0-0-----------------------------|-0-0-0--------9--------*|
|-------------------------------------|-----------------------*|
|
| Gtr III
| PM----|                               PM--|
|             |-3-|
| S S S S S S S S S  S S S S  S S S S   S S S S S  S S S  S S
|-------------------------------------|-----------------------*|
|-------------------------------------|-----------------------*|
|-------------7h8p7-------------7-8-7-|-------6-5---------7---*|
|---------7-8-------10-8-7-8-10-------|------------6---7------*|
|-0-0-0-0-----------------------------|-0-0-0--------7--------*|
|-------------------------------------|-----------------------*|



Duration Legend
---------------
W - whole; H - half; Q - quarter; E - 8th; S - 16th; T - 32nd; X - 64th; a - acciaccatura
+ - note tied to previous; . - note dotted; .. - note double dotted
Uncapitalized letters represent notes that are staccato (1/2 duration)
Irregular groupings are notated above the duration line
Duration letters will always appear directly above the note/fret number it represents the
duration for.  Duration letters with no fret number below them represent rests.  Multi-
bar rests are notated in the form Wxn, where n is the number of bars to rest for.  Low
melody durations appear below the staff

Tablature Legend
----------------
 h   - hammer-on
 p   - pull-off
 b   - bend
 pb  - pre-bend
 r   - bend release (if no number after the r, then release immediately)
 /\  - slide into or out of (from/to "nowhere")
 s   - legato slide
 S   - shift slide
 - natural harmonic
[n]  - artificial harmonic
n(n) - tapped harmonic
 ~   - vibrato
 tr  - trill
 T   - tap
 TP  - trem. picking
 PM  - palm muting
\n/  - tremolo bar dip; n = amount to dip
 \n  - tremolo bar down
 n/  - tremolo bar up
/n\  - tremolo bar inverted dip
 =   - hold bend; also acts as connecting device for hammers/pulls
 <> - volume swell (louder/softer)
 x   - on rhythm slash represents muted slash
 o   - on rhythm slash represents single note slash

Misc Legend
-----------
 |  - bar
||  - double bar
||o - repeat start
o|| - repeat end
*|  - double bar (ending)
 :  - bar (freetime)
 $  - Segno
 &  - Coda
Tempo markers -  = BPM(8/16=s8/s16), where s8 = swing 8ths, s16 = swing 16ths

Добавлено: 26.07.2012
Другие материалы по этой песне:

Страница создана 03.05.2012
http://primanota.ru/believer/nonpoint-chords.htm
Привет, Гость.
Предлагаем пройти революционный курс по гитаре.
Подарок от PrimaNota.Ru, забирай!