PrimaNota.ru - самый крупный в мире бесплатный архив песенных текстов, аккордов, табулатур и нот


Believer - No Apology - текст песни, таба, бас-таба, видео

Регистрация Запомнить меня
Войти через:  Facebook Google Twitter Vk Yandex Mail.ru

Believer - No Apology - текст песни, таба, бас-таба, видео

Печатать
Просмотров: 174
Уроки эстрадного вокала в Санкт-Петербурге
Transcribed by Ibeanez


        



Gtr I (D G C F A D) - 'Rhythm 1'
Gtr II (D G C F A D) - 'Rhythm 2'
Gtr III (D G C F A D) - 'Lead'
Gtr IV (D G C F A D) - 'Acoustic'
Gtr V (D G C F A D) - 'Muted'

    Q=165
   4/4
    Gtr I
                PM    PM|   PM    PM|
    E E E E E E E E   E E E E E E E E
||------------------|-----------------|
||o-----------------|-----------------|
||--7-----6---------|-----------------|
||----6-----5-------|-----------------|
||o-----4-----4-0-4-|-----3---3-2-2-2-|
||----------------7-|-0-0-1-0-1-0-0-0-|
|
|   Gtr II
|                     PM|   PM    PM|
|   E E E E E E E E   E E E E E E E E
||------------------|-----------------|
||o-----------------|-----------------|
||--9-----8---------|-----------------|
||----8-----7-------|-----------------|
||o-----7-----7-0-4-|-----3---3-2-2-2-|
||----------------7-|-0-0-1-0-1-0-0-0-|


                                     3/4
              PM    PM|   PM    PM    PM    PM--|
  E E E E E E E E   E E E E E E E E   E E E E E E   4x
|-----------------|-----------------|---------------||
|-----------------|-----------------|--------------o||
|-7-----6---------|-----------------|---------------||
|---6-----5-------|-----------------|---------------||
|-----4-----4-0-4-|-----3---6-5---5-|---5-2-2-2-2--o||
|---------------7-|-0-0-1-0-4-3-0-3-|-0-3-0-0-0-0---||
|
|                   PM|   PM    PM    PM    PM--|
| E E E E E E E E   E E E E E E E E   E E E E E E   4x
|-----------------|-----------------|---------------||
|-----------------|-----------------|--------------o||
|-9-----8---------|-----------------|---------------||
|---8-----7-------|-----------------|---------------||
|-----7-----7-0-4-|-----3---6-5---5-|---5-2-2-2-2--o||
|---------------7-|-0-0-1-0-4-3-0-3-|-0-3-0-0-0-0---||


 4/4
  Gtr I
                         PM---------------
   E  E E  E  E E  E E   E E E E E E E E
|----------------------|-----------------|
|----------------------|-----------------|
|-12------11-----------|-----------------|
|----11------10--------|-----------------|
|-------9-------9----9-|-2-2-2-2-2-2-2-2-|
|-----------------10---|-0-0-0-0-0-0-0-0-|
|
| Gtr II
|  E  E E  E  E E  E E   E E E E E E E E
|----------------------|-----------------|
|----------------------|-----------------|
|--7-------6-----------|-----------------|
|-----6-------5------4-|-----------------|
|-------4-------4--5---|-2-2-2-2-2-2-2-2-|
|----------------------|-0-0-0-0-0-0-0-0-|


 -----------------------------------------|   PM|   PM|
  E E E E E S S E E   E S S E E E E E E   E E E E E E E E
|-------------------|-------------------|-----------------|
|-------------------|-------------------|-----------------|
|-------------------|-------------------|-----------------|
|-------------------|-------------------|-----------------|
|-2-2-2-2-2-3-3-3-2-|---2-2-3-3-3-3-3---|---2-----1-----2-|
|-0-0-0-0-0-1-1-1-0-|---1-1-3-1-1-1-1-0-|-3---0-2---0-3---|
|
| E E E E E S S E E   E S S E E E E E E   E E E E E E E E
|-------------------|-------------------|-----------------|
|-------------------|-------------------|-----------------|
|-------------------|-------------------|-----------------|
|-------------------|-------------------|-----------------|
|-2-2-2-2-2-3-3-3-2-|---2-2-3-3-3-3-3---|---2-----1-----2-|
|-0-0-0-0-0-1-1-1-0-|---1-1-3-1-1-1-1-0-|-3---0-2---0-3---|


  Gtrs I, II
  PM----------------------------------------------------|       PM    PM
  E E E E E E E E   E E E E E S S E E   E S S E E E E E E   E E E E E E E E
|-----------------|-------------------|-------------------|-----------------|
|-----------------|-------------------|-------------------|-----------------|
|-----------------|-------------------|-------------------|-5-4---7-6---5-6-|
|-----------------|-------------------|-------------------|-6-5---7-6---6-7-|
|-2-2-2-2-2-2-2-2-|-2-2-2-2-2-3-3-3-2-|---2-2-3-3-3-3-3---|-6-5---5-4---6-7-|
|-0-0-0-0-0-0-0-0-|-0-0-0-0-0-1-1-1-0-|---1-1-3-1-1-1-1-0-|-4-3-0-----0-4-5-|


                                                        3/4
  PM------------------------| ~
  E E E E E E E E   E E E E E E +Q     E E E E E E E E   E E E E E E
|-----------------|------------------|-----------------|--------------|
|-----------------|------------------|-----------------|--------------|
|-----------------|------------------|-----------------|--------------|
|-----5-----4-----|-5-----4----------|-----5-------4---|-----5-----4--|
|---4-----3-----4-|-----3---3--------|---4---4---3---3-|---4-----3----|
|-5-----4-----5---|---4-------4-(4)--|-5-------4-------|-5-----4------|


   4/4
    PM--------------------------------------------------------|   PM|   PM|
    E E E E E E E E   E E E E E S S E E   E S S E E E E E E   E E E E E E E E
||------------------|-------------------|-------------------|-----------------|
||o-----------------|-------------------|-------------------|-----------------|
||------------------|-------------------|-------------------|-----------------|
||------------------|-------------------|-------------------|-----------------|
||o-2-2-2-2-2-2-2-2-|-2-2-2-2-2-3-3-3-2-|---2-2-3-3-3-3-3---|---2-----1-----2-|
||--0-0-0-0-0-0-0-0-|-0-0-0-0-0-1-1-1-0-|---1-1-3-1-1-1-1-0-|-3---0-2---0-3---|


  PM----------------------------------------------------|       PM    PM
  E E E E E E E E   E E E E E S S E E   E S S E E E E E E   E E E E E E E E
|-----------------|-------------------|-------------------|------------------||
|-----------------|-------------------|-------------------|-----------------o||
|-----------------|-------------------|-------------------|-5-4---7-6---5-6--||
|-----------------|-------------------|-------------------|-6-5---7-6---6-7--||
|-2-2-2-2-2-2-2-2-|-2-2-2-2-2-3-3-3-2-|---2-2-3-3-3-3-3---|-6-5---5-4---6-7-o||
|-0-0-0-0-0-0-0-0-|-0-0-0-0-0-1-1-1-0-|---1-1-3-1-1-1-1-0-|-4-3-0-----0-4-5--||


                             PM------|
    E E E E E E E E   Q  +E  E E E E E   E E E E E E E E   E E E E +H
||------------------|------------------|-----------------|-----------------||
||o-----------------|------------------|-----------------|----------------o||
||------------------|-6--(6)-----------|-----------------|-------0-(0)-----||
||------9-----8-5-9-|-6--(6)-----------|-----9-----8-5s9-|-----6-----------||
||o---7-----6---3-5-|-4--(4)-4-4-4-4-4-|---7-----6---3s5-|---4------------o||
||--9-----8---------|-6--(6)-6-6-6-6-6-|-9-----8---------|-6---------------||


    $
    PM--------------------------------------------------------|   PM|   PM|
    E E E E E E E E   E E E E E S S E E   E S S E E E E E E   E E E E E E E E
||------------------|-------------------|-------------------|------------------|
||o-----------------|-------------------|-------------------|------------------|
||------------------|-------------------|-------------------|------------------|
||------------------|-------------------|-------------------|------------------|
||o-2-2-2-2-2-2-2-2-|-2-2-2-2-2-3-3-3-2-|---2-2-3-3-3-3-3---|---2-----1-----2--|
||--0-0-0-0-0-0-0-0-|-0-0-0-0-0-1-1-1-0-|---1-1-3-1-1-1-1-0-|-3---0-2---0-3----|


  PM----------------------------------------------------|       PM    PM
  E E E E E E E E   E E E E E S S E E   E S S E E E E E E   E E E E E E E E
|-----------------|-------------------|-------------------|------------------||
|-----------------|-------------------|-------------------|-----------------o||
|-----------------|-------------------|-------------------|-5-4---7-6---5-6--||
|-----------------|-------------------|-------------------|-6-5---7-6---6-7--||
|-2-2-2-2-2-2-2-2-|-2-2-2-2-2-3-3-3-2-|---2-2-3-3-3-3-3---|-6-5---5-4---6-7-o||
|-0-0-0-0-0-0-0-0-|-0-0-0-0-0-1-1-1-0-|---1-1-3-1-1-1-1-0-|-4-3-0-----0-4-5--||


                                                          1.,2.,3.
                             PM------|
    E E E E E E E E   Q  +E  E E E E E   E E E E E E E E   E E E E +H      4x
||------------------|------------------|-----------------|-----------------||
||o-----------------|------------------|-----------------|----------------o||
||------------------|-6--(6)-----------|-----------------|-------0-(0)-----||
||------9-----8-5-9-|-6--(6)-----------|-----9-----8-5s9-|-----6-----------||
||o---7-----6---3-5-|-4--(4)-4-4-4-4-4-|---7-----6---3s5-|---4------------o||
||--9-----8---------|-6--(6)-6-6-6-6-6-|-9-----8---------|-6---------------||


  4.
                                                               Fine
                                            5/8
   E E E E +E  E E E   E E E E E +T  E.. E   +T  E.. E +T  E..
|--------------------|---------------------|--------------------|
|--------------------|---------------------|--------------------|
|--------0-(0)-------|-------0-0-(0)-----4-|-(4)-----4-(4)------|
|------6-------4-----|-----3---2-(2)-----2-|-(2)-----2-(2)------|
|----4-----------2---|---1-----2-(2)-----2-|-(2)-----2-(2)------|
|--6---------------4-|-3-------0-(0)-----3-|-(3)-----3-(3)------|


 4/4                    9/8
  Q    Q   S S S S E E   E..  E +T  E..  E +T  E..  E +T
|----------------------|----------------------------------|
|----------------------|----------------------------------|
|----------------------|------4-(4)------4-(4)------4-(4)-|
|----/10\------------6-|------2-(2)------2-(2)------2-(2)-|
|-2---/8\------------4-|------2-(2)------2-(2)------2-(2)-|
|-0--------0-0-0-0-3---|------3-(3)------3-(3)------3-(3)-|


 4/4                    9/8
                              PM----------------------|
  Q    Q   S S S S E E   E..  E +T  E..  E +T  E..  E +T
|----------------------|-----------------------------------|
|----------------------|-----------------------------------|
|----------------------|------3-(3)------1-(1)------4-(4)--|
|----/10\------------5-|------0-(0)------x-(x)------0-(0)--|
|-2---/8\------------3-|------1-(1)------3-(3)------2-(2)--|
|-0--------0-0-0-0-3---|-----------------4-(4)-------------|


 4/4                                                    3/4
  PM------------------------| ~
  E E E E E E E E   E E E E E E +Q     E E E E E E E E   E E E E E E
|-----------------|------------------|-----------------|-------------|
|-----------------|------------------|-----------------|-------------|
|-----------------|------------------|-----------------|-------------|
|-----5-----4-----|-5-----4----------|-----5-------4---|-----5-----4-|
|---4-----3-----4-|-----3---3--------|---4---4---3---3-|---4-----3---|
|-5-----4-----5---|---4-------4-(4)--|-5-------4-------|-5-----4-----|


   4/4                    9/8
    Q    Q   S S S S E E   E.. E +T  E.. E +T  E.. E +T
||-----------------------|-------------------------------|
||o----------------------|-------------------------------|
||-----------------------|-----4-(4)-----4-(4)-----4-(4)-|
||-----/10\------------6-|-----2-(2)-----2-(2)-----2-(2)-|
||o-2---/8\------------4-|-----2-(2)-----2-(2)-----2-(2)-|
||--0--------0-0-0-0-3---|-----3-(3)-----3-(3)-----3-(3)-|


 4/4                    9/8
                             PM--------------------|
  Q    Q   S S S S E E   E.. E +T  E.. E +T  E.. E +T
|----------------------|--------------------------------||
|----------------------|-------------------------------o||
|----------------------|-----3-(3)-----1-(1)-----4-(4)--||
|----/10\------------5-|-----0-(0)-----x-(x)-----0-(0)--||
|-2---/8\------------3-|-----1-(1)-----3-(3)-----2-(2)-o||
|-0--------0-0-0-0-3---|---------------4-(4)------------||


   4/4                                                    3/4
    PM------------------------| ~
    E E E E E E E E   E E E E E E +Q     E E E E E E E E   E E E E E E
||------------------|------------------|-----------------|---------------||
||o-----------------|------------------|-----------------|--------------o||
||------------------|------------------|-----------------|---------------||
||------5-----4-----|-5-----4----------|-----5-------4---|-----5-----4---||
||o---4-----3-----4-|-----3---3--------|---4---4---3---3-|---4-----3----o||
||--5-----4-----5---|---4-------4-(4)--|-5-------4-------|-5-----4-------||


   4/4
    PM----------------------------|
                                                         |-3-|
    E E H.        E E H.        E E H.         Q   +Q    Q Q Q
||--------------|-------------|-------------|--------------------||
||o-------------|-------------|-------------|-------------------o||
||--------------|-------------|-------------|----------------4---||
||--------------|-------------|---0---------|-10--(10)\----2-----||
||o-2-----------|-2-2---------|---2---------|--8---(8)\--4------o||
||--0-----------|-0-0---------|-------------|--------------------||


  Gtr III
                                |--3---|                    |------3------|
  S  S S S E. +S     +E     +E  E  E   E   H         Q     +E     +E     +E
|----------------------------------------|-----------------------------------|
|----------------------------------------|-----------------------------------|
|--------------------------------------7-|-8b9-------9b11r=(9)b11r(9)b11r(9)-|
|-9h10p9p7h9--(9)b11r(9)b11r(9)-9-10-----|-----------------------------------|
|----------------------------------------|-----------------------------------|
|----------------------------------------|-----------------------------------|
|
| Gtrs I, II
| PM--------------------------------------------------------------------------
| E    E   H                    E    E     E   E H.
|----------------------------------------|-----------------------------------|
|----------------------------------------|-----------------------------------|
|----------------------------------------|-----------------------------------|
|----------------------------------------|-----------------------------------|
|-2----2-----------------------------2---|-2---2-----------------------------|
|-0----0-----------------------------0---|-0---0-----------------------------|


                                                             \0.5
  E  E E e S +S     +E     +E     +E       +E  E    E E  e   Q        +E
|----------------------------------------|----------------------------------|
|------7-9-9-(9)b11-(9)b12r(9)b13r(9)b14r|=(9)-9----7-9-10--12-------(12)---|
|-9-10-----------------------------------|----------------------------------|
|----------------------------------------|----------------------------------|
|----------------------------------------|----------------------------------|
|----------------------------------------|----------------------------------|
|
|--------------------------------------------------------------------|
| E  E E E H                                E.   E.   E  E.       E.   E
|----------------------------------------|----------------------------------|
|----------------------------------------|----------------------------------|
|----------------------------------------|----------------------------------|
|----0-0---------------------------------|--1----2----1--0--------1----0----|
|----2-2---------------------------------|--2----3----2--1--------2----1----|
|----------------------------------------|----------------------------------|


    ~~~~
                  |-------3-------|   |-3--|
   +E    +E      +E      +E      +E   Q Q  q     S  +S       +E   +E  E E E  E  E
|---------------------------------------8-10--|-10-(10)b12==(10)r(10)-8-7-8-------|
|-(12)--(12)b14r(12)b15r(12)b16r(12)-12-------|-----------------------------10-12-|
|---------------------------------------------|-----------------------------------|
|---------------------------------------------|-----------------------------------|
|---------------------------------------------|-----------------------------------|
|---------------------------------------------|-----------------------------------|
|
|         PM-----------------------------------------------------------------------
|   Q     E               E           H          E            E    E  E H
|---------------------------------------------|-----------------------------------|
|---------------------------------------------|-----------------------------------|
|---------------------------------------------|-----------------------------------|
|---------------------------------------------|-----------------------------------|
|---------2---------------2-------------------|---------------2----2--2-----------|
|---------0---------------0-------------------|---------------0----0--0-----------|


            |-3-|  |-3-|
   E E E E  S S S  S S S S  S S  S         E. E. E E. +S    +S   E.
|----------------------------------|----------------------------------|
|-10-8-7---------------------------|----------------------------------|
|--------7-10-7---10-9-7-9---------|----------------------------------|
|--------------------------10-7----|----------------------------------|
|-------------------------------10-|-------8--7--8-7--(7)b9r(7)s14\---|
|----------------------------------|----------------------------------|
|
|-----------------------------------------------------------|
|  Q   E E  H                        E. E. E  E.       E.    E
|----------------------------------|----------------------------------|
|----------------------------------|----------------------------------|
|----------------------------------|----------------------------------|
|------0-0-------------------------|-1--2--1--0--------1-----0--------|
|------2-2-------------------------|-2--3--2--1--------2-----1--------|
|----------------------------------|----------------------------------|


   ~~
                                                |---5---|
   Q  +E    +E    +E  E  E E   E    +E  E E E E S S S S S
|----------------------------|----------------------------|
|----------------------------|----------------------------|
|----------------------------|-9b11r(9)-6-9-7-9-7h9p7p6h9-|
|--------------------------7-|----------------------------|
|-/7--(7)b8r(7)b8r(7)-8-10---|----------------------------|
|----------------------------|----------------------------|
|
|      PM--------------------------------------------------
|  Q   E     E     H           E     E  E E H
|----------------------------|----------------------------|
|----------------------------|----------------------------|
|----------------------------|----------------------------|
|----------------------------|----------------------------|
|------2-----2---------------|-------2--2-2---------------|
|------0-----0---------------|-------0--0-0---------------|


                                       \1.5__________
  |-3--|
  S  S S E E E  E E  S S S S   E  E  E E     +H
|----------------------------|----------------------|
|----------------------------|----------------------|
|-9h10p9p7-9-7---------------|----------------------|
|--------------10-9-10-9-7-9-|----------------------|
|----------------------------|-8--7-----------------|
|----------------------------|-------8-7-----(7)----|
|
|------------------------------------------------|
| Q    E E H                   E. E. E E.     E. E
|----------------------------|----------------------|
|----------------------------|----------------------|
|----------------------------|----------------------|
|------0-0-------------------|-1--2--1-0------1--0--|
|------2-2-------------------|-2--3--2-1------2--1--|
|----------------------------|----------------------|


   /          \2
  +Q   +Q    +Q   +Q     H        H         E  E  E  S  S  S  S  e S  S  E
|----------------------|----------------|-/12-10---------------------------|
|----------------------|----------------|--------13-12-13-12-10-12-9-10-12-|
|----------------------|----------------|----------------------------------|
|----------------------|----------------|----------------------------------|
|----------------------|----------------|----------------------------------|
|-(7)--(7)---(7)--(7)--|-0-------<5>----|----------------------------------|
|
|       PM------------------------------------------------------------------
|  Q    E  E  H          E E E E  H         Q     E  E     H
|----------------------|----------------|----------------------------------|
|----------------------|----------------|----------------------------------|
|----------------------|----------------|----------------------------------|
|----------------------|----------------|---------0--0---------------------|
|-------2--2-----------|---2-3-2--------|---------2--2---------------------|
|-------0--0-----------|---0-0-0--------|----------------------------------|


   E  S  Q        +S   S   S  E.     +S      +S      +S
|-----------------------------------------------------------|
|-13----13pb15r==(13)p12------------------------------------|
|-------------------------14-13-----(13)b16r(13)b17r(13)\---|
|-----------------------------------------------------------|
|-----------------------------------------------------------|
|-----------------------------------------------------------|
|
|---------------------------------------------------|
|  E.    E.    E       E.        E.                   E
|-----------------------------------------------------------|
|-----------------------------------------------------------|
|-----------------------------------------------------------|
|--1-----2-----1-------0---------1--------------------0-----|
|--2-----3-----2-------1---------2--------------------1-----|
|-----------------------------------------------------------|


                                                         D.S. al Fine
                                                        3/4
  Gtr IV
  PM------------------------| ~
  E E E E E E E E   E E E E E E +Q     E E E E E E E E   E E E E E E
|-----------------|------------------|-----------------|--------------*|
|-----------------|------------------|-----------------|--------------*|
|-----------------|------------------|-----------------|--------------*|
|-----5-----4-----|-5-----4----------|-----5-------4---|-----5-----4--*|
|---4-----3-----4-|-----3---3--------|---4---4---3---3-|---4-----3----*|
|-5-----4-----5---|---4-------4-(4)--|-5-------4-------|-5-----4------*|
|
| Gtr V
| W                 W                  E E E E E E E E   E E E E E E
|-----------------|------------------|-----------------|--------------*|
|-----------------|------------------|-----------------|--------------*|
|-----------------|------------------|-----3-------2---|-----3-----2--*|
|-----------------|------------------|---2---2---1---1-|---2-----1----*|
|-----------------|------------------|-4-------3-------|-4-----3------*|
|-----------------|------------------|-----------------|--------------*|



Duration Legend
---------------
W - whole; H - half; Q - quarter; E - 8th; S - 16th; T - 32nd; X - 64th; a - acciaccatura
+ - note tied to previous; . - note dotted; .. - note double dotted
Uncapitalized letters represent notes that are staccato (1/2 duration)
Irregular groupings are notated above the duration line
Duration letters will always appear directly above the note/fret number it represents the
duration for.  Duration letters with no fret number below them represent rests.  Multi-
bar rests are notated in the form Wxn, where n is the number of bars to rest for.  Low
melody durations appear below the staff

Tablature Legend
----------------
 h   - hammer-on
 p   - pull-off
 b   - bend
 pb  - pre-bend
 r   - bend release (if no number after the r, then release immediately)
 /\  - slide into or out of (from/to "nowhere")
 s   - legato slide
 S   - shift slide
 - natural harmonic
[n]  - artificial harmonic
n(n) - tapped harmonic
 ~   - vibrato
 tr  - trill
 T   - tap
 TP  - trem. picking
 PM  - palm muting
\n/  - tremolo bar dip; n = amount to dip
 \n  - tremolo bar down
 n/  - tremolo bar up
/n\  - tremolo bar inverted dip
 =   - hold bend; also acts as connecting device for hammers/pulls
 <> - volume swell (louder/softer)
 x   - on rhythm slash represents muted slash
 o   - on rhythm slash represents single note slash

Misc Legend
-----------
 |  - bar
||  - double bar
||o - repeat start
o|| - repeat end
*|  - double bar (ending)
 :  - bar (freetime)
 $  - Segno
 &  - Coda
Tempo markers -  = BPM(8/16=s8/s16), where s8 = swing 8ths, s16 = swing 16ths

Добавлено: 19.03.2012
Другие материалы по этой песне:

Страница создана 21.02.2012
http://primanota.ru/believer/no-apology-chords.htm
Привет, Гость.
Предлагаем пройти революционный курс по гитаре.
Подарок от PrimaNota.Ru, забирай!