PrimaNota.ru - самый крупный в мире бесплатный архив песенных текстов, аккордов, табулатур и нот


Believer - Lie Awake - таба, видео

Регистрация Запомнить меня
Войти через:  Facebook Google Twitter Vk Yandex Mail.ru

Believer - Lie Awake - таба, видео

Печатать
Просмотров: 172
Lie Awake by Believer

Tabbed by: breadtruck
Email: vegas_poker101@yahoo.co.uk

Tuning: D standard

intro
D|--------------------------------------------------------------|
A|--------------------------------------------------------------|
F|----9--101010-121212-9----9----------------77-------4---------|
C|-2--9--101010-121212-9----9-------------444--44-5-7-4-4--/5-4-| x4
G|-2--7--8-8-8--101010-7--777-77-333555222--------5-7-2-4-------|
D|-0----------------------------------------------3-5---2-------|
                          ..  .. ................

verse
D|------------------------||-----------------------|------------------------|
A|------------------------||---1st time play this--|---2nd time this--------|
F|------------------------||-----------------------|------------------------|
C|------------------------||-----------------------|------------------------|
G|-------5h7-------10--10-||-----5h7---------------|------5h7---------------|
D|--00-0-----00-078--78---||-00-0----00-0-11113311-|-00-0-----00-0-1111-1-1-|
    .. .     .. ...  ..      .. .    .. . ........   .. .     .. . .... . .

play verse twice all the way through


chorus                                    
D|-----------------------------------------|
A|-----------------------------------------|
F|-----4-5-7---------------4-5-7-----------|
C|-2---4-5-7-----4--5--2---4-5-7-----5--4--| x2
G|-2---2-3-5--222-22---2---2-3-5--222-22---| 
D|-0---0---------------0---0---------------|
              ... ..              ... ..

repeat intro, verse, chorus

bridge
D|------------------------------------------|
A|------------------------------------------|
F|------------------------------------------|
C|--------7h8p7---------------7h8p7---------| x4
G|-----7h8------7-9-10-----7h8--------9-10--|
D|-000-----------------000----------7-------|
   ...                 ...

solo
D|----------------------------------------|
A|----------------------------------------|
F|----------------------------------------|
C|--------7b9b7---------------------------|
G|-7-9-10-------10-9-10b13b10--9-10-------|
D|----------------------------------10--8-|

D|-----------------------------------------------------------|
A|-----------------------------------------------------------|
F|----------------------------------------------slowly bend--|
C|--------7b9b7----------------------------------------------|
G|-7-9-10-------10-9-10b12b10-10*--10-9-------9b10-----------|
D|--------------------------------------10--8----------------|


solo rhythm
e|-----------------------------|
B|-----------------------------|
G|-----7--4--4------7--9--10---|
D|-2---7--4--4--2---7--9--10---| x2
A|-2---5--2--2--2---5--7--8----| 
E|-0------------0--------------|


repeat bridge, verse, chorus, intro

and you're done!

************************************

| /   slide up
| \   slide down
| h   hammer-on
| p   pull-off
| ~   vibrato
| +   harmonic
| x   Mute note
| b   Bend
| pb  Pre-bend
| br  Bend release
| pbr Pre-bend release
| brb Bend release bend

************************************
Добавлено: 16.05.2012
Другие материалы по этой песне:
  • Аккорды и текст

Страница создана 16.05.2012
http://primanota.ru/believer/lie-awake-chords.htm
Привет, Гость.
Предлагаем пройти революционный курс по гитаре.
Подарок от PrimaNota.Ru, забирай!