PrimaNota.ru - самый крупный в мире бесплатный архив песенных текстов, аккордов, табулатур и нот


Believer - Gone - текст песни, таба, бас-таба, видео

Регистрация Запомнить меня
Войти через:  Facebook Google Twitter Vk Yandex Mail.ru

Believer - Gone - текст песни, таба, бас-таба, видео

Печатать
Просмотров: 177
As recorded by Believer
(From the 1993 Album DIMENSIONS)

Transcribed by Ibeanez
        



Gtr I (D G C F A D) - 'Rhythm/Lead1'
Gtr II (D G C F A D) - 'Rhythm2'
Gtr III (D G C F A D) - 'Lead2'

  Q=115
 4/4
  Gtr I
          PM----|     PM--|   PM--|     PM----|     PM--|   PM--|     PM----|
  H.      S S S S   E S S S S S S S S E S S S S   E S S S S S S S S E S S S S
|-----------------|-----------------------------|-----------------------------|
|-----------------|-----------------------------|-----------------------------|
|-----------------|-----------------------------|-----------------------------|
|-----------------|-8-------8-------8-----------|-8-------8-------8-----------|
|-----------------|-6-------6-------7-----------|-6-------6-------7-----------|
|---------0-0---0-|-6-0-0-0-6-0-0-0-9---0-0---0-|-6-0-0-0-6-0-0-0-9---0-0---0-|


    Gtrs I, II
      PM--|   PM--|     PM----|     PM--|   PM--|     PM----|
    E S S S S S S S S E S S S S   E S S S S S S S S E S S S S  3x
||------------------------------|------------------------------||
||o-----------------------------|-----------------------------o||
||------------------------------|------------------------------||
||--8-------8-------8-----------|-8-------8-------8------------||
||o-6-------6-------7-----------|-6-------6-------7-----------o||
||--6-0-0-0-6-0-0-0-9---0-0---0-|-6-0-0-0-6-0-0-0-9---0-0---0--||


                                                       7/8
                       PM|                                   PM------------|
  Q.    Q  Q  E   +E   S S H    +Q      Q.    Q  Q  E   +E   S S E S S E S S E
|---------------|---------------------|---------------|------------------------|
|---------------|---------------------|---------------|------------------------|
|---------------|---------------------|---------------|------------------------|
|-9-----9--8--9-|-(9)\-----4----(4)/--|-9-----9--7----|------------------------|
|-7----10--6--7-|-(7)\-----4----(4)/--|-7----10--5--8-|-(8)\-2-2---2-2---2-2---|
|-------8-----7-|-(7)\-0-0------------|-------8-----6-|-(6)\-0-0---0-0---0-0---|


 4/4
  PM------|                        PM|
  S S E S S  Q   Q  E   +E  E +E   S S H
|---------------------|---------------------|
|---------------------|---------------------|
|---------------------|---------------------|
|-----------/9---9--8-|-(8)-8-(8)\-----4----|
|-2-2---2-2-/7--10--6-|-(6)-6-(6)\-----4----|
|-0-0---0-0------8----|-----7-(7)\-0-0------|


                   H.=H
                        PM------------------|
   Q.    Q  Q  E   +E   S S E S S E S S E S S
|----------------|-----------------------------|
|----------------|-----------------------------|
|----------------|-----------------------------|
|-/9-----9--7--7-|-(7)\------------------------|
|-/7----10--5--8-|-(8)\-2-2---2-2---2-2---2-2--|
|--------8-----6-|-(6)\-0-0---0-0---0-0---0-0--|


  Q=76
    PM|         PM------------------------|
  E S S E E +S  T T T T T T T T T T T T T T
|-------------------------------------------|
|-------------------------------------------|
|-------------------------------------------|
|-------4-4-(4)-----------------------------|
|-2-2-2-2-0-(0)-----------------------------|
|-0-0-0---------1-1-1-1-1-1-1-1-1-1-1-1-1-1-|


    PM|     PM    PM----------------------|
  E S S S S S S S S T T T T T T T T T T T T
|---------------------------------------------|
|---------------------------------------------|
|---------------------------------------------|
|-------7s6-----------------------------------|
|-2-2-2-5s4---6s7-----------------------------|
|-0-0-0-----0-4s5-0-5-5-5-5-7-7-7-7-5-5-5-5---|


    PM|         PM------------------------|     PM|     PM    PM
  E S S E E +S  T T T T T T T T T T T T T T   E S S S S S S S S a E +S   a E.
|-------------------------------------------|----------------------------------|
|-------------------------------------------|----------------------------------|
|-------------------------------------------|----------------------------------|
|-------4-4-(4)-----------------------------|-------7s6------------------------|
|-2-2-2-2-0-(0)-----------------------------|-2-2-2-5s4---6s7---7s8-(8)--7s8---|
|-0-0-0---------1-1-1-1-1-1-1-1-1-1-1-1-1-1-|-0-0-0-----0-4s5-0-5s6-(6)--5s6---|


       PM|         PM------------------------|
    E  S S E E +S  T T T T T T T T T T T T T T
||---------------------------------------------|
||o--------------------------------------------|
||---------------------------------------------|
||---------4-4-(4)-----------------------------|
||o-7\-2-2-2-0-(0)-----------------------------|
||--5\-0-0---------1-1-1-1-1-1-1-1-1-1-1-1-1-1-|


    PM|     PM    PM----------------------|
  E S S S S S S S S T T T T T T T T T T T T
|--------------------------------------------|
|--------------------------------------------|
|--------------------------------------------|
|-------7s6----------------------------------|
|-2-2-2-5s4---6s7----------------------------|
|-0-0-0-----0-4s5-0-5-5-5-5-7-7-7-7-5-5-5-5--|


    PM|         PM------------------------|     PM|     PM    PM
  E S S E E +S  T T T T T T T T T T T T T T   E S S S S S S S S a E +S  a E.
|-------------------------------------------|---------------------------------||
|-------------------------------------------|--------------------------------o||
|-------------------------------------------|---------------------------------||
|-------4-4-(4)-----------------------------|-------7s6-----------------------||
|-2-2-2-2-0-(0)-----------------------------|-2-2-2-5s4---6s7---7s8-(8)-7s8--o||
|-0-0-0---------1-1-1-1-1-1-1-1-1-1-1-1-1-1-|-0-0-0-----0-4s5-0-5s6-(6)-5s6---||


     PM|         PM------------------------|
  E  S S E E +S  T T T T T T T T T T T T T T
|--------------------------------------------|
|--------------------------------------------|
|--------------------------------------------|
|--------4-4-(4)-----------------------------|
|-7\-2-2-2-0-(0)-----------------------------|
|-5\-0-0---------1-1-1-1-1-1-1-1-1-1-1-1-1-1-|


 5/4
    PM|     PM    PM--------------------|
  E S S S S S S S S S S S S S S S  S  S  S
|------------------------------------------|
|------------------------------------------|
|------------------------------------------|
|-------7s6---------9-9-9-9-9-9-9----------|
|-2-2-2-5s4---6s7---7-7-7-6-6-7-7-10-10-10-|
|-0-0-0-----0-4s5-0----------------8--8--7-|


   4/4                                      9/16
                          PM----------|
     H    E. E E S   H    S S S S S S S  S    +H      S  4x
||-----------------|-----------------------|-------------||
||o----------------|-----------------------|------------o||
||-----------------|-----------------------|-------------||
||--------6--------|------9-9-9-9---9------|-------------||
||o-10---------7---|-7----7-7-7-6-0-7-0-10-|-(10)----10-o||
||---0-------6---5-|---------------------8-|--(8)-----7--||


  Q=110
 5/4                    4/4
  Gtr I
   W       S S S S       E +S   E  +S  E +S  E +S  Q
|--------------------||-------------------------------|
|--------------------||o------------------------------|
|--------------------||-------------------------------|
|------------4-------||--7-(7)S10-(10)S6-(6)S8-(8)S4--|
|-10-----------5-6---||o-5-(5)S=8--(8)S4-(4)S6-(6)S2--|
|--0-------3---------||--5-(5)S=8--(8)S4-(4)S6-(6)S2--|
|
| Gtr II
|  W         S S S S     E +S   E  +S  E +S  E +S  Q
|--------------------||-------------------------------|
|--------------------||o------------------------------|
|--------------------||-------------------------------|
|--------------7---4-||--7-(7)S10-(10)S6-(6)S8-(8)S4--|
|-10-------------5---||o-5-(5)S=8--(8)S4-(4)S6-(6)S2--|
|--0---------6-------||--5-(5)S=8--(8)S4-(4)S6-(6)S2--|


  +E. S S S S E +S   E  +S  E +S    E +S  S +H      S S  S  S
|---------------------------------|-----------------------------||
|---------------------------------|----------------------------o||
|---------------------------------|-----------------------------||
|-(4)---4-----7-(7)S10-(10)S6-(6)-|-8-(8)S9-(9)-----------------||
|-(2)-----5-6-5-(5)S=8--(8)S4-(4)-|-6-(6)S7-(7)----10-9--------o||
|-(2)-3-------5-(5)S=8--(8)S4-(4)-|-6-(6)S7-(7)---------10-11---||
|
| +E. S S S S E +S   E  +S  E +S    E +S  S +H      S S  S  S
|---------------------------------|-----------------------------||
|---------------------------------|----------------------------o||
|---------------------------------|-----------------------------||
|-(4)---4-----7-(7)S10-(10)S6-(6)-|-8-(8)S9-(9)-----------------||
|-(2)-----5-6-5-(5)S=8--(8)S4-(4)-|-6-(6)S7-(7)----10-9--------o||
|-(2)-3-------5-(5)S=8--(8)S4-(4)-|-6-(6)S7-(7)---------10-11---||


  Gtrs I, II
  E +S  E +S  E +S  E +S  Q
|----------------------------|
|----------------------------|
|----------------------------|
|-4-(4)S7-(7)S4-(4)S6-(6)S2--|
|-5-(5)S8-(8)S4-(4)S6-(6)S2--|
|----------------------------|


  +E. S S S S E +S   E  +S  E +S    E +S  S +H      S S  S  S
|---------------------------------|----------------------------|
|---------------------------------|----------------------------|
|---------------------------------|----------------------------|
|-(2)---4-----7-(7)S10-(10)S6-(6)-|-8-(8)S9-(9)----------------|
|-(2)-----5-6-5-(5)S=8--(8)S4-(4)-|-6-(6)S7-(7)----10-9--------|
|-----3-------5-(5)S=8--(8)S4-(4)-|-6-(6)S7-(7)---------10-11--|


                            PM      PM        PM----------------|
  E.  E  E  S  H      S  S  S S  S  S S S +S  T T S S T T S T T S
|-------------------|---------------------------------------------|
|-------------------|---------------------------------------------|
|-------------------|---------------------------------------------|
|-9--(9)-8-(8)-4----|-9-(9)---7-(7)---4-2-(2)---------------------|
|-7--(7)-6-(6)-4----|-7-(7)---5-(5)---2-2-(2)---------------------|
|-----8-----7-------|----8--0----6--0---0-(0)-0-0-0-0-0-0-0-0-0-0-|


  Gtr I
                            PM      PM
  E.  E  E  S  H      S  S  S S  S  S S E E. S S S S
|-------------------|--------------------------------|
|-------------------|--------------------------------|
|-------------------|--------------------------------|
|-9--(9)-8-(8)-4----|-9-(9)---7-(7)---4-2------4-----|
|-7--(7)-6-(6)-4----|-7-(7)---5-(5)---2-2--------5-6-|
|-----8-----7-------|----8--0----6--0---0----3-------|
|
| Gtr II
|                           PM      PM
| E.  E  E  S  H      S  S  S S  S  S S E E. S S S S
|-------------------|--------------------------------|
|-------------------|--------------------------------|
|-------------------|--------------------------------|
|-9--(9)-8-(8)-4----|-9-(9)---7-(7)---4-2------7---4-|
|-7--(7)-6-(6)-4----|-7-(7)---5-(5)---2-2--------5---|
|-----8-----7-------|----8--0----6--0---0----6-------|


    $
    Gtrs I, II
    E +S   E  +S  E +S  E +S  Q
||-------------------------------|
||o------------------------------|
||-------------------------------|
||--7-(7)S10-(10)S6-(6)S8-(8)S4--|
||o-5-(5)S=8--(8)S4-(4)S6-(6)S2--|
||--5-(5)S=8--(8)S4-(4)S6-(6)S2--|


  +E. S S S S E +S   E  +S  E +S    E +S  S +H      S S  S  S
|---------------------------------|----------------------------||
|---------------------------------|---------------------------o||
|---------------------------------|----------------------------||
|-(4)---4-----7-(7)S10-(10)S6-(6)-|-8-(8)S9-(9)----------------||
|-(2)-----5-6-5-(5)S=8--(8)S4-(4)-|-6-(6)S7-(7)----10-9-------o||
|-(2)-3-------5-(5)S=8--(8)S4-(4)-|-6-(6)S7-(7)---------10-11--||


  E +S  E +S  E +S  E +S  Q
|----------------------------|
|----------------------------|
|----------------------------|
|-4-(4)S7-(7)S4-(4)S6-(6)S2--|
|-5-(5)S8-(8)S4-(4)S6-(6)S2--|
|----------------------------|


  +E. S S S S E +S   E  +S  E +S    E +S  S +H      S S  S  S
|---------------------------------|----------------------------|
|---------------------------------|----------------------------|
|---------------------------------|----------------------------|
|-(2)---4-----7-(7)S10-(10)S6-(6)-|-8-(8)S9-(9)----------------|
|-(2)-----5-6-5-(5)S=8--(8)S4-(4)-|-6-(6)S7-(7)----10-9--------|
|-----3-------5-(5)S=8--(8)S4-(4)-|-6-(6)S7-(7)---------10-11--|


                            PM      PM        PM----------------|
  E.  E  E  S  H      S  S  S S  S  S S S +S  T T S S T T S T T S
|-------------------|---------------------------------------------|
|-------------------|---------------------------------------------|
|-------------------|---------------------------------------------|
|-9--(9)-8-(8)-4----|-9-(9)---7-(7)---4-2-(2)---------------------|
|-7--(7)-6-(6)-4----|-7-(7)---5-(5)---2-2-(2)---------------------|
|-----8-----7-------|----8--0----6--0---0-(0)-0-0-0-0-0-0-0-0-0-0-|


                            PM      PM
  E.  E  E  S  H      S  S  S S  S  S S S +H
|-------------------|----------------------------|
|-------------------|----------------------------|
|-------------------|----------------------------|
|-9--(9)-8-(8)-4----|-9-(9)---7-(7)---4-2-(2)----|
|-7--(7)-6-(6)-4----|-7-(7)---5-(5)---2-2-(2)----|
|-----8-----7-------|----8--0----6--0---0-(0)----|


      PM  PM----|                           PM  PM----|        PM|
  S S S S S S S S H      E. E E. H      S S S S S S S S H      S E E E. H
|----------------------|--------------|----------------------|--------------|
|----------------------|--------------|----------------------|--------------|
|-6s7---7---------3----|---------4----|-6s7---7---------3----|-------0--4---|
|-4s5---5-----2-0-2----|------2--2----|-4s5---5-----2-0-2----|-----2----2---|
|-----0-5-0-0-----4----|----1----2----|-----0-5-0-0-----4----|---1------2---|
|-----------------2----|-2-------0----|-----------------2----|-2--------0---|


                                                    To Coda
                                                              2/4
      PM  PM----|                           PM  PM----|        PM|
  S S S S S S S S H      E. E E. H      S S S S S S S S H      S E E E.
|----------------------|--------------|----------------------|----------|
|----------------------|--------------|----------------------|----------|
|-6s7---7---------3----|---------4----|-6s7---7---------3----|-------0--|
|-4s5---5-----2-0-2----|------2--2----|-4s5---5-----2-0-2----|-----2----|
|-----0-5-0-0-----4----|----1----2----|-----0-5-0-0-----4----|---1------|
|-----------------2----|-2-------0----|-----------------2----|-2--------|


  Q=115
 11/8
  Gtr I
  PM----|         PM----|         PM----|         PM----|
  S S S S E       S S S S E       S S S S E       S S S S
|------------------------------------------------------------|
|------------------------------------------------------------|
|------------------------------------------------------------|
|------------------------------------------------------------|
|---------2tr3------------4tr5------------2tr3---------------|
|-0-2-3-0---------0-2-3-0---------0-2-3-0---------0-2-3-2----|
|
| Gtr II
| E   Q           W
|------------------------------------------------------------|
|------------------------------------------------------------|
|-4----------------------------------------------------------|
|-2----------------------------------------------------------|
|-2----------------------------------------------------------|
|-0----------------------------------------------------------|


    Gtrs I, II
    PM----|         PM----|         PM----|         PM----|
    S S S S E       S S S S E       S S S S E       S S S S  5x
||-----------------------------------------------------------||
||o---------------------------------------------------------o||
||-----------------------------------------------------------||
||-----------------------------------------------------------||
||o---------2tr3------------4tr5------------2tr3------------o||
||--0-2-3-0---------0-2-3-0---------0-2-3-0---------0-2-3-2--||


 4/4
    E     S  S  E      E     +H
|-----------------------------------------------------------|
|-----------------------------------------------------------|
|-----------------------------------------------------------|
|--------------/9-------------------------------------------|
|---2----------/7-----10----(10)----------------------------|
|---0-----0--0---------8-----(8)----------------------------|
|
| Gtr III
|                                             |--3--|
|   S  S  S  S  S.  T  S  S   S   S  S  S  S  T  T  T  S  S
|--------15-19-18--15----15---------------------------------|
|-----17--------------19-----17--19-17-15-17-15h17p15----15-|
|-/16-------------------------------------------------17----|
|-----------------------------------------------------------|
|-----------------------------------------------------------|
|-----------------------------------------------------------|


   S  S  Q     Q      Q     E
|---------------------------------------------------|
|---------------------------------------------------|
|---------------------------------------------------|
|---------------------------------------------------|
|-------/7-----6\-----5-----4-----------------------|
|--0--0-/8-----7\-----3-----2-----------------------|
|
|  S  S  S  S  S   S  S  S  S  S  S  S  S  S  S  S
|---------------------------------------------------|
|---------------------------------------------------|
|-17-16-17-16---------------------------------------|
|-------------19--17-16-----------------------------|
|-----------------------19-17-15-14-----------------|
|-----------------------------------17-15-14-12-11--|


  Gtr II
   E S S   E  E  +H                  S  S   Q   Q        Q     E
|--------------------------------|-------------------------------------|
|--------------------------------|-------------------------------------|
|--------------------------------|-------------------------------------|
|---------/9---------------------|-------------------------------------|
|--2------/7-10-(10)-------------|---------/7---6\-------5-----4-------|
|--0-0-0------8--(8)-------------|---0--0--/8---7\-------3-----2-------|
|
| Gtr I
|                                           ~~~~
|  Q       E  E  +E    E  Q         +Q.    +Q        S   S  S  S  S  S
|--------------------------------|-------------------------------------|
|--------------------------------|----------------------------12-------|
|--------/12-11-(11)-------------|-------------------------11----11----|
|--9------------------12-13b14===|=(13)---(13)-------9--------------12-|
|--------------------------------|-----------------------9-------------|
|--------------------------------|-------------------------------------|
|
| Gtr III
|                                           ~~~~
|  Q       E  E  +E    E  Q         +Q.    +Q       +Q.
|--------------------------------|-------------------------------------|
|--------------------------------|-------------------------------------|
|--------------------------------|-------------------------------------|
|--------------------------------|-------------------------------------|
|---------15-14-(14)\------------|-------------------------------------|
|-12------------------12-14b15===|=(14)---(14)-----(14)\---------------|


   E  S S  E  E  +H             S  S  Q          Q         Q   E
|---------------------------|------------------------------------|
|---------------------------|------------------------------------|
|---------------------------|------------------------------------|
|---------/9----------------|------------------------------------|
|--2------/7-10-(10)--------|--------/7----------6\--------5---4-|
|--0--0-0-----8--(8)--------|---0--0-/8----------7\--------3---2-|
|
|  ~~~                                                     ~~~~
|  Q.         Q       Q   E    +Q        E      +E   +E   +Q.
|---------------------------|------------------------------------|
|-12---------10-------------|------------------------------------|
|-12---------11------11-----|-----------11b12==(11)-(11)r(11)----|
|--------------------12--12-|-(12)-------------------------------|
|------------------------14-|-(14)------14b15==(14)-(14)r(14)----|
|---------------------------|------------------------------------|
|
|                                                          ~~~~
|  Q.         Q       Q   E    +Q        E      +E   +E   +Q.
|-12---------10-------------|------------------------------------|
|--------------------12-----|-----------12b13==(12)-(12)r(12)----|
|------------------------11-|-(11)-------------------------------|
|---------------------------|------------------------------------|
|---------------------------|------------------------------------|
|---------------------------|------------------------------------|


    E   S S  E   E    +H                S   S    Q  Q            Q    E
|----------------------------------|------------------------------------|
|----------------------------------|------------------------------------|
|----------------------------------|------------------------------------|
|-----------/9---------------------|------------------------------------|
|---2-------/7--10---(10)----------|------------/7--6\-----------5----4-|
|---0---0-0------8----(8)----------|----0---0---/8--7\-----------3----2-|
|
|                                                                >
|  +Q.           Q     Q.              +H                +E      Q.
|--------------<12>-(<12>)---------|-(<12>)------------(<12>)-(<12>)----|
|----------------------0-----------|---(0)---------------(0)----(0)-----|
|-(11)\----------------------------|-----------------------------0------|
|----------------------------------|------------------------------------|
|-(14)\----------------------------|------------------------------------|
|----------------------------------|------------------------------------|
|
|                                           /
|  +Q.           Q     E     Q         +E   H..
|---------------------<5>--(<5>)---|--(<5>)-----------------------------|
|-(12)\---------------------<5>----|--(<5>)-----------------------------|
|----------------------------------|------------------------------------|
|----------------------------------|------------------------------------|
|----------------------------------|------------------------------------|
|----------------------------------|--------0---------------------------|


 11/8
  Gtr I
   PM-----|           PM----|        PM----|        PM----|
   S  S S S E         S S S S E      S S S S E      S S S S
|-----------------------------------------------------------|
|-----------------------------------------------------------|
|-----------------------------------------------------------|
|-----------------------------------------------------------|
|-----------2tr3--------------4tr5-----------2tr3-----------|
|--0--2-3-0-----------0-2-3-0--------0-2-3-0--------0-2-3-2-|
|
| Gtr II
|  PM-----|           PM----|        PM----|        PM----|
|  S  S S S E         S S S S E      S S S S E      S S S S
|-----------------------------------------------------------|
|-----------------------------------------------------------|
|-----------------------------------------------------------|
|-----------------------------------------------------------|
|-----------3tr4--------------5tr6-----------3tr4-----------|
|--0--2-3-0-----------0-2-3-0--------0-2-3-0--------0-2-3-2-|
|
| +Q.            +W
|-----------------------------------------------------------|
|-----------------------------------------------------------|
|-----------------------------------------------------------|
|-----------------------------------------------------------|
|-----------------------------------------------------------|
|-(0)------------(0)----------------------------------------|


   PM-----|      PM----|      PM----|       PM----|
   S  S S S E    S S S S E    S S S S  E    S S S S
|---------------------------------------------------|
|---------------------------------------------------|
|---------------------------------------------------|
|---------------------------------------------------|
|-----------2tr3---------4tr5----------2tr3---------|
|--0--2-3-0------0-2-3-0------0-2-3-0-------0-2-3-2-|
|
|  PM-----|      PM----|      PM----|       PM----|
|  S  S S S E    S S S S E    S S S S  E    S S S S
|---------------------------------------------------|
|---------------------------------------------------|
|---------------------------------------------------|
|---------------------------------------------------|
|-----------3tr4---------5tr6----------3tr4---------|
|--0--2-3-0------0-2-3-0------0-2-3-0-------0-2-3-2-|
|
| +W                                  +Q.
|---------------------------------------------------|
|---------------------------------------------------|
|---------------------------------------------------|
|---------------------------------------------------|
|---------------------------------------------------|
|-(0)---------------------------------(0)-----------|


    PM----|        PM----|        PM----|        PM----|
    S S S S E      S S S S E      S S S S E      S S S S
||---------------------------------------------------------||
||o-------------------------------------------------------o||
||---------------------------------------------------------||
||---------------------------------------------------------||
||o---------2tr3-----------4tr5-----------2tr3------------o||
||--0-2-3-0--------0-2-3-0--------0-2-3-0--------0-2-3-2---||
|
|   PM----|        PM----|        PM----|        PM----|
|   S S S S E      S S S S E      S S S S E      S S S S
||---------------------------------------------------------||
||o-------------------------------------------------------o||
||---------------------------------------------------------||
||---------------------------------------------------------||
||o---------3tr4-----------5tr6-----------3tr4------------o||
||--0-2-3-0--------0-2-3-0--------0-2-3-0--------0-2-3-2---||


 4/4
  Gtr I
               PM--|   PM--|        PM----|   PM--|   PM--|
  S.   S.  S E S S S S S S S E.     S. S. S E S S S S S S S E.  5x
|-------------------------------||------------------------------||
|-------------------------------||o----------------------------o||
|-------------------------------||------------------------------||
|------------8-------8-------8\-||----------8-------8-------8\--||
|------------6-------6-------7\-||o---------6-------6-------7\-o||
|-0----0---0-6-0-0-0-6-0-0-0-9\-||--0--0--0-6-0-0-0-6-0-0-0-9\--||
|
| Gtr II
|                                   PM----|   PM--|   PM--|
| S. H E..                   E.     S. S. S E S S S S S S S E.  5x
|-------------------------------||------------------------------||
|-------------------------------||o----------------------------o||
|-------------------------------||------------------------------||
|----------------------------8\-||----------8-------8-------8\--||
|----------------------------7\-||o---------6-------6-------7\-o||
|-0--------------------------9\-||--0--0--0-6-0-0-0-6-0-0-0-9\--||


  Gtr I
  PM----------|
  S S S S S S S  S  +H        +H..        E
|--------------------------|----------------|
|--------------------------|----------------|
|--------------------------|----------------|
|-9-9-9-9---9--------------|----------------|
|-7-7-7-6-0-7-0-10-(10)----|-(10)--------10-|
|----------------8--(8)----|--(8)---------7-|
|
| Gtr II
| PM----------|
| S S S S S S S  S  +H        +H..        E
|--------------------------|----------------|
|--------------------------|----------------|
|--------------------------|----------------|
|-9-9-9-9---9--------------|----------------|
|-7-7-7-6-0-7-0-10-(10)----|-(10)--------10-|
|----------------8--(8)----|--(8)---------7-|


                 Q=110
                         D.S. al Coda
                           2/4
   e H..         W          E E E E
|--------------|----------|-----------|
|--------------|----------|-----------|
|--------------|----------|-----------|
|--------------|----------|---4-------|
|-10-----------|----------|-----5-6---|
|--0-----------|----------|-3---------|
|
|  e H..         W          E E E E
|--------------|----------|-----------|
|--------------|----------|-----------|
|--------------|----------|-----------|
|--------------|----------|---6-------|
|-10-----------|----------|-----5-7---|
|--0-----------|----------|-5---------|


  &
 4/4
  Gtrs I, II
  PM|                 PM  PM----|
  S E E E. H      S S S S S S S S H      E. E E. H
|---------------|----------------------|--------------|
|---------------|----------------------|--------------|
|-------0--4----|-6s7---7---------3----|---------4----|
|-----2----2----|-4s5---5-----2-0-2----|------2--2----|
|---1------2----|-----0-5-0-0-----4----|----1----2----|
|-2--------0----|-----------------2----|-2-------0----|


      PM  PM----|           PM|
  S S S S S S S S H         S E E E. e   Q.
|-------------------------|-------------------*|
|-------------------------|-------------------*|
|-6s7---7---------3-------|-------0-----------*|
|-4s5---5-----2-0-2-------|-----2-------------*|
|-----0-5-0-0-----4tr5----|---1------2--------*|
|-----------------2-------|-2--------0--------*|



Duration Legend
---------------
W - whole; H - half; Q - quarter; E - 8th; S - 16th; T - 32nd; X - 64th; a - acciaccatura
+ - note tied to previous; . - note dotted; .. - note double dotted
Uncapitalized letters represent notes that are staccato (1/2 duration)
Irregular groupings are notated above the duration line
Duration letters will always appear directly above the note/fret number it represents the
duration for.  Duration letters with no fret number below them represent rests.  Multi-
bar rests are notated in the form Wxn, where n is the number of bars to rest for.  Low
melody durations appear below the staff

Tablature Legend
----------------
 h   - hammer-on
 p   - pull-off
 b   - bend
 pb  - pre-bend
 r   - bend release (if no number after the r, then release immediately)
 /\  - slide into or out of (from/to "nowhere")
 s   - legato slide
 S   - shift slide
 - natural harmonic
[n]  - artificial harmonic
n(n) - tapped harmonic
 ~   - vibrato
 tr  - trill
 T   - tap
 TP  - trem. picking
 PM  - palm muting
\n/  - tremolo bar dip; n = amount to dip
 \n  - tremolo bar down
 n/  - tremolo bar up
/n\  - tremolo bar inverted dip
 =   - hold bend; also acts as connecting device for hammers/pulls
 <> - volume swell (louder/softer)
 x   - on rhythm slash represents muted slash
 o   - on rhythm slash represents single note slash

Misc Legend
-----------
 |  - bar
||  - double bar
||o - repeat start
o|| - repeat end
*|  - double bar (ending)
 :  - bar (freetime)
 $  - Segno
 &  - Coda
Tempo markers -  = BPM(8/16=s8/s16), where s8 = swing 8ths, s16 = swing 16ths

Добавлено: 29.07.2012
Другие материалы по этой песне:

Страница создана 21.02.2012
http://primanota.ru/believer/gone-chords.htm
Привет, Гость.
Предлагаем пройти революционный курс по гитаре.
Подарок от PrimaNota.Ru, забирай!