PrimaNota.ru - самый крупный в мире бесплатный архив песенных текстов, аккордов, табулатур и нот


Believer - Future Mind - текст песни, таба, бас-таба, видео

Регистрация Запомнить меня
Войти через:  Facebook Google Twitter Vk Yandex Mail.ru

Believer - Future Mind - текст песни, таба, бас-таба, видео

Печатать
Просмотров: 154
As recorded by Believer
(From the 1993 Album DIMENSIONS)

Transcribed by Ibeanez
        



Gtr I (D G C F A D) - 'Rhythm 1'
Gtr II (D G C F A D) - 'Rhythm 2'
Gtr III (D G C F A D) - 'Clean'
Gtr IV (D G C F A D) - 'End'

  Q=120
 4/4                5/4
  Gtrs I, II
  W                  W  Q
|------------------|---------|
|------------------|---------|
|------------------|---------|
|------------------|---------|
|------------------|---------|
|------------------|---------|


   4/4                           5/4
            PM--|                         PM----|
    S S S S S S S  E.   E.  E.    S S S S S S S S  E.   E.  E.  E.  4x
||-----------------------------||-----------------------------------||
||o----------------------------||----------------------------------o||
||-----------------------------||-----------------------------------||
||--6-5-----------10--(10)--9--||-6-5-------------10--(10)--9--10---||
||o-----7-6--------6-------11--||-----7-6----------6-------11---8--o||
||----------0-0-0-------8---7--||---------0-0-0-0-------8---7-------||


   4/4
    Gtr I
             PM--|
    S S  S S S S S  E.   E.  E.
||------------------------------||
||o-----------------------------||
||------------------------------||
||--6-5------------10--(10)--9--||
||o------7-6--------6-------11--||
||-----------0-0-0-------8---7--||
|
|   Gtr II
|            PM--|
|   S S  S S S S S  E.   E.  E.
||------------------------------||
||o-----------------------------||
||------------------------------||
||--9-8------------10--(10)--9--||
||o-----10-9--------6-------11--||
||-----------0-0-0-------8---7--||


 1.,2.,3.                              4.
 5/4                                   2/4
           PM----|                               PM--|
  S S  S S S S S S  E.   E.  E.  E.     S S  S S S S S S
|------------------------------------||-------------------|
|-----------------------------------o||-------------------|
|------------------------------------||-------------------|
|-6-5--------------10--(10)--9--10---||-6-5---------------|
|------7-6----------6-------11---8--o||------7-6----------|
|----------0-0-0-0-------8---7-------||----------0-0-0----|
|
|          PM----|                               PM--|
| S S  S S S S S S  E.   E.  E.  E.     S S  S S S S S S
|------------------------------------||-------------------|
|-----------------------------------o||-------------------|
|------------------------------------||-------------------|
|-9-8--------------10--(10)--9--10---||-9-8---------------|
|-----10-9----------6-------11---8--o||-----10-9----------|
|----------0-0-0-0-------8---7-------||----------0-0-0----|


 4/4
  |-3-|
  S S S S S S S S S S S S S S S S S
|-----------------------------------|
|-----------------------------------|
|-2h3p2-----------1-2-1-------------|
|-------4-2-1-2-4-------4-2-1-------|
|-----------------------------4-2-0-|
|-----------------------------------|


    E=156
   11/8
    Gtrs I, II
                   PM--------------------|
    Q  +S  E  S  E S T T S S E S S S S S S
||-----------------------------------------|
||o----------------------------------------|
||--4--(4)-5-(5)---------------------------|
||--4--(4)-5--5----------------6-5---------|
||o-2--(2)-3--3----6-6-6-5-5---4-3---6-5-3-|
||------------4----4-4-4-3-3---------4-3-1-|


                 PM--------------------|
  E.   E.  S  E. S T T S S E S S S S S S
|-----------------------------------------||
|----------------------------------------o||
|-4----5--(5)-----------------------------||
|-4----5---5-----------------6-5----------||
|-2----3---3-----6-6-6-5-5---4-3---6-5-3-o||
|----------4-----4-4-4-3-3---------4-3-1--||


  $
 19/8
  Gtr I
  PM  PM  PM  PM  PM  PM  PM  PM
  S E S E S E S E S E S E S E S E E.  E.  E.  E.  E
|------------------------------------------------------|
|------------------------------------------------------|
|------------------------------------------------------|
|-2---3---2---5---2---3---2---5---2---3---2---5---2----|
|-2---3---2---5---2---3---2---5---2---3---2---5---2----|
|-0---1---0---3---0---1---0---3---0---1---0---3---0----|
|
| Gtr II
| PM  PM  PM  PM  PM  PM  PM  PM
| S E S E S E S E S E S E S E S E E.  E.  E.  E.  E
|------------------------------------------------------|
|------------------------------------------------------|
|---------------------------------4---5---4---7---4----|
|-2---3---2---5---2---3---2---5---2---3---2---5---2----|
|-2---3---2---5---2---3---2---5---2---3---2---5---2----|
|-0---1---0---3---0---1---0---3------------------------|


   11/8
    Gtrs I, II
                   PM--------------------|
    Q  +S  E  S  E S T T S S E S S S S S S
||-----------------------------------------|
||o----------------------------------------|
||--4--(4)-5-(5)---------------------------|
||--4--(4)-5--5----------------6-5---------|
||o-2--(2)-3--3----6-6-6-5-5---4-3---6-5-3-|
||------------4----4-4-4-3-3---------4-3-1-|


  1.
               PM--------------------|
  E. E.  S  E. S T T S S E S S S S S S
|---------------------------------------||
|--------------------------------------o||
|-4--5--(5)-----------------------------||
|-4--5---5-----------------6-5----------||
|-2--3---3-----6-6-6-5-5---4-3---6-5-3-o||
|--------4-----4-4-4-3-3---------4-3-1--||


  2.
               PM--------------------|
  E. E.  S  E. S T T S S E S S S S S S
|--------------------------------------|
|--------------------------------------|
|-4--5--(5)----------------------------|
|-4--5---5-----------------6-5---------|
|-2--3---3-----6-6-6-5-5---4-3---8-7---|
|--------4-----4-4-4-3-3-------------5-|


  Q=120
 2/4
   S S S S S S S S
|-------------------|
|-------------------|
|-------------------|
|--7-6-----------5--|
|------9-7-6-7-9----|
|-------------------|


 4/4                           5/4
  Gtr I
          PM--|                          PM----|
  S S S S S S S  E.   E.  E.    S S  S S S S S S  E.   E.  E.  E.
|----------------------------||------------------------------------|
|----------------------------||------------------------------------|
|----------------------------||------------------------------------|
|-6-5-----------10--(10)--9--||-6-5--------------10--(10)--9--10---|
|-----7-6--------6-------11--||------7-6----------6-------11---8---|
|---------0-0-0-------8---7--||----------0-0-0-0-------8---7-------|
|
| Gtr II
|         PM--|                          PM----|
| S S S S S S S  E.   E.  E.    S S  S S S S S S  E.   E.  E.  E.
|----------------------------||------------------------------------|
|----------------------------||------------------------------------|
|----------------------------||------------------------------------|
|-6-5-----------10--(10)--9--||-9-8--------------10--(10)--9--10---|
|-----7-6--------6-------11--||-----10-9----------6-------11---8---|
|---------0-0-0-------8---7--||----------0-0-0-0-------8---7-------|


   4/4                           5/4
            PM--|                         PM----|
    S S S S S S S  E.   E.  E.    S S S S S S S S  E.   E.  E.  E.
||-----------------------------||----------------------------------|
||o----------------------------||----------------------------------|
||-----------------------------||----------------------------------|
||--6-5-----------10--(10)--9--||-6-5-------------10--(10)--9--10--|
||o-----7-6--------6-------11--||-----7-6----------6-------11---8--|
||----------0-0-0-------8---7--||---------0-0-0-0-------8---7------|
|
|           PM--|                         PM----|
|   S S S S S S S  E.   E.  E.    S S S S S S S S  E.   E.  E.  E.
||-----------------------------||----------------------------------|
||o----------------------------||----------------------------------|
||-----------------------------||----------------------------------|
||--6-5-----------10--(10)--9--||-6-5-------------10--(10)--9--10--|
||o-----7-6--------6-------11--||-----7-6----------6-------11---8--|
||----------0-0-0-------8---7--||---------0-0-0-0-------8---7------|


                                                            To Coda
 4/4                            5/4
           PM--|                          PM----|
  S S  S S S S S  E.   E.  E.    S S  S S S S S S  E.   E.  E.  E.
|-----------------------------||-------------------------------------||
|-----------------------------||------------------------------------o||
|-----------------------------||-------------------------------------||
|-6-5------------10--(10)--9--||-6-5--------------10--(10)--9--10----||
|------7-6--------6-------11--||------7-6----------6-------11---8---o||
|----------0-0-0-------8---7--||----------0-0-0-0-------8---7--------||
|
|          PM--|                          PM----|
| S S  S S S S S  E.   E.  E.    S S  S S S S S S  E.   E.  E.  E.
|-----------------------------||-------------------------------------||
|-----------------------------||------------------------------------o||
|-----------------------------||-------------------------------------||
|-9-8------------10--(10)--9--||-9-8--------------10--(10)--9--10----||
|-----10-9--------6-------11--||-----10-9----------6-------11---8---o||
|----------0-0-0-------8---7--||----------0-0-0-0-------8---7--------||


 4/4                            2/4
           PM--|                          PM--|
  S S  S S S S S  E.   E.  E.    S S  S S S S S S
|-----------------------------||------------------|
|-----------------------------||------------------|
|-----------------------------||------------------|
|-6-5------------10--(10)--9--||-6-5--------------|
|------7-6--------6-------11--||------7-6---------|
|----------0-0-0-------8---7--||----------0-0-0---|
|
|          PM--|                          PM--|
| S S  S S S S S  E.   E.  E.    S S  S S S S S S
|-----------------------------||------------------|
|-----------------------------||------------------|
|-----------------------------||------------------|
|-9-8------------10--(10)--9--||-9-8--------------|
|-----10-9--------6-------11--||-----10-9---------|
|----------0-0-0-------8---7--||----------0-0-0---|


 4/4
  Gtrs I, II
  |-3-|
  S S S S S S S S S S S S S S S S S
|-----------------------------------|
|-----------------------------------|
|-2h3p2-----------1-2-1-------------|
|-------4-2-1-2-4-------4-2-1-------|
|-----------------------------4-2-0-|
|-----------------------------------|


  Q=145
 4/4
       PM------|           PM----------|
  Q.   E E E E E   Q  Q.   E E E   E E E Q  Q  E
|----------------|---------------|----------------|
|----------------|---------------|----------------|
|-4--------------|---------------|-------------4--|
|-4------5---7---|-6--4----5---6-|---7---6--4--4--|
|-2----0-3-0-5-0-|-6--5----3-0-4-|-0-5-0-6--5--2--|
|----------------|---------------|----------------|


        PM------|           PM----------|
  +Q.   E E E E E   Q  Q.   E E E   E E E Q  Q.
|-----------------|---------------|---------------|
|-----------------|---------------|---------------|
|-(4)-------------|---------------|---------------|
|-(4)-----5---7---|-6--4----5---6-|---7---6--4----|
|-(2)---0-3-0-5-0-|-6--5----3-0-4-|-0-5-0-6--5----|
|-----------------|---------------|---------------|


                        PM--|
  E E E S S S S E E E   S S S E E E S S S S E S
|---------------------|-------------------------|
|---------------------|-------------------------|
|---------------------|-------------------------|
|-8-7-8-6-5-----8-7-8-|-------8-7-8-6-5-----8-7-|
|-5-4-5-----6-5-5-4-5-|-8-8-8-5-4-5-----6-5-5-4-|
|---------------------|-------------------------|


                                                    3/4
        PM--|                       PM--|                        PM--|
  +S  E S S S E E E S S S S   E E E S S S E E E S    S S S E E E S S S
|---------------------------|---------------------||--------------------|
|---------------------------|---------------------||--------------------|
|---------------------------|---------------------||--------------------|
|-(7)-8-------8-7-8-6-5-----|-8-7-8-------8-7-8-6-||-5-----8-7-8--------|
|-(4)-5-8-8-8-5-4-5-----6-5-|-5-4-5-8-8-8-5-4-5---||---6-5-5-4-5-8-8-8--|
|---------------------------|---------------------||--------------------|


 4/4
       PM------|           PM----------|
  Q.   E E E E E   Q  Q.   E E E   E E E Q  Q.
|----------------|---------------|---------------|
|----------------|---------------|---------------|
|-4--------------|---------------|---------------|
|-4------5---7---|-6--4----5---6-|---7---6--4----|
|-2----0-3-0-5-0-|-6--5----3-0-4-|-0-5-0-6--5----|
|----------------|---------------|---------------|


 3/4
  Gtr I
    E  E  E   E  E  E    E  E  E   E  E  E
|---------------------|----12-13--15-13-12-|
|---------------------|-13-----------------|
|---------------12-14-|--------------------|
|--------14--15-------|--------------------|
|-/12-15--------------|--------------------|
|---------------------|--------------------|
|
| Gtr III
|   E  E +H              E  E +H
|---------------------|--------------------|
|---------------------|--------------------|
|---------------------|--------------------|
|---------------------|--------------------|
|------0-(0)----------|-----3-(3)----------|
|---1-----------------|--2-----------------|


                              ~~~
                |--3--|
   E  E  E   E  S  S  S  E    H.
|--------------------------|--------------|
|-15-13-12--13-12h13p12----|--------------|
|-----------------------14-|-12-----------|
|--------------------------|--------------|
|--------------------------|--------------|
|--------------------------|--------------|
|
|  E  E +H                    E  E +H
|--------------------------|--------------|
|--------------------------|--------------|
|--------------------------|--------------|
|--------------------------|--------------|
|-----3-(3)----------------|-----2-(2)----|
|--4-----------------------|--0-----------|


   E  +E      +E   E  +E   E    Q.        E  E  E
|----------------------------|--------------------|
|-13-(13)b15r(13)-12-(12)----|--------------12-13-|
|-------------------------14-|-13--------14-------|
|----------------------------|--------------------|
|----------------------------|--------------------|
|----------------------------|--------------------|
|
|  E   E      +H                E  E +H
|----------------------------|--------------------|
|----------------------------|--------------------|
|----------------------------|--------------------|
|----------------------------|--------------------|
|------0------(0)------------|-----3-(3)----------|
|--1-------------------------|--2-----------------|


                                ~~~
   E  +E      +E   E  +E   E    H.
|-12-(12)b14r(12)-10-(10)----|--------------|
|-------------------------13-|-12-----------|
|----------------------------|--------------|
|----------------------------|--------------|
|----------------------------|--------------|
|----------------------------|--------------|
|
|  E   E      +H                E  E +H
|----------------------------|--------------|
|----------------------------|--------------|
|----------------------------|--------------|
|----------------------------|--------------|
|------3------(3)------------|-----2-(2)----|
|--1-------------------------|--0-----------|


  Gtr I
    >
    ~~~~~~~~~~~~~~~~~~~
   +H.             +H.             H.                   H.
|---------------|---------------|---------------------|-----------------|
|-(12)----------|-(12)----------|---------------------|-----------------|
|---------------|---------------|---------------------|-----------------|
|---------------|---------------|---------------------|-----------------|
|---------------|---------------|---------------------|-----------------|
|---------------|---------------|---------------------|-----------------|
|
| Gtr II
|             PM                                                  ~~
|                                     |-3--|            |--3--|
|   Q.     Q  E     Q.     Q  E    E  S  S S E E  E E   S   S S E H
|---------------|---------------|---------------------|-----------------|
|---------------|---------------|---------------------|-----------------|
|---------------|---7------9--9-|-10--9h10p9p7-9----7-|-----------------|
|-------------7-|---------------|----------------10---|-9--10-9-7-9\----|
|--/7------8----|---------------|---------------------|-----------------|
|---------------|---------------|---------------------|-----------------|
|
| Gtr III
|   E  E H          E  E H         E  E      H          E       E H
|---------------|---------------|---------------------|-----------------|
|---------------|---------------|---------------------|-----------------|
|---------------|---------------|---------------------|-----------------|
|--------0------|--------0------|------------0--------|-----------0-----|
|------0--------|------3--------|-----3---------------|---------2-------|
|---1-----------|---2-----------|--4------------------|-0---------------|


  Gtr II
                                |-3-|
   E  E E E  E  E       +E. S E E E E E
|--------------------|----------------------|
|-------8-9-10-10b11-|-(10)-9-8-9-8-7-7pb9==|
|----10--------------|----------------------|
|-/9-----------------|----------------------|
|--------------------|----------------------|
|--------------------|----------------------|
|
| Gtr III
|  E  E H                E  E H
|--------------------|----------------------|
|--------------------|----------------------|
|--------------------|----------------------|
|-------0------------|--------0-------------|
|-----0--------------|------3---------------|
|--1-----------------|---2------------------|


                           |-3-|
  +E  +E  +E    +E     +E  S S S   E E +E    +E    +E    +E
|--------------------------------|------------------------------|
|-(7)r(7)-(7)b9r(7)b10r(7)-6p5p4-|-6-5-(5)b6r(5)b7r(5)b7r(5)\---|
|--------------------------------|------------------------------|
|--------------------------------|------------------------------|
|--------------------------------|------------------------------|
|--------------------------------|------------------------------|
|
|  E   E   H                       E E  H
|--------------------------------|------------------------------|
|--------------------------------|------------------------------|
|--------------------------------|------------------------------|
|----------0---------------------|------0-----------------------|
|------3-------------------------|---2--------------------------|
|--1-----------------------------|-0----------------------------|


  Gtr I
   Q        +Q    +Q      Q    +E   e E  E
|-21b22====(21)--(21)r=|=19---(19)-22---24-|
|----------------------|-------------------|
|----------------------|-------------------|
|----------------------|-------------------|
|----------------------|-------------------|
|----------------------|-------------------|
|
|  E     E  +H            E E  +H
|----------------------|-------------------|
|----------------------|-------------------|
|----------------------|-------------------|
|----------------------|-------------------|
|--------0--(0)--------|----3--(3)---------|
|--1-------------------|--2----------------|


                            ~~
   +Q.           Q.         Q    +H
|-(24)b26r======24pb26r==|=24---(24)\----|
|------------------------|---------------|
|------------------------|---------------|
|------------------------|---------------|
|------------------------|---------------|
|------------------------|---------------|
|
|   E     E +H              E E  +H
|------------------------|---------------|
|------------------------|---------------|
|------------------------|---------------|
|------------------------|---------------|
|---------3-(3)----------|----2--(2)-----|
|---4--------------------|--0------------|


                          |---3---|  |--3---|  |--3--|
  E    E   E   E  E  E    E  E    E  E   E  E  E  E  E
|---------12--13-15-13-|-12----------------------------|
|---^(12)--------------|----15---13-12-----------------|
|---^(14)--------------|----------------14-12----------|
|----------------------|----------------------15-14-12-|
|----------------------|-------------------------------|
|----------------------|-------------------------------|
|
| E    E  +H              E    E    +H
|----------------------|-------------------------------|
|----------------------|-------------------------------|
|----------------------|-------------------------------|
|----------------------|-------------------------------|
|------0--(0)----------|-------3----(3)----------------|
|-1--------------------|--2----------------------------|


                                                 ~~
   |--3--|             |--3--|        |--3--|
   S  S  S  S.  S.  S  S  S  S  S  S  S  S  S    H    +Q
|---------------------------------------------|---------------|
|---------------------------------------------|---------------|
|---------------------------------------------|---------------|
|---------------------12-14-15-14-12----------|---------------|
|-15-14-12-14--15--14----------------15-14-12-|-14---(14)\----|
|---------------------------------------------|---------------|
|
|  E     E     +H                                E E  +H
|---------------------------------------------|---------------|
|---------------------------------------------|---------------|
|---------------------------------------------|---------------|
|---------------------------------------------|---------------|
|--------3-----(3)----------------------------|----2--(2)-----|
|--1------------------------------------------|--0------------|


  Gtr II
  E  E  E E S  S S   S   E S  S  S  S  E  S S S +S
|----------------------|--------------------------------|
|---------9-9h10p9-----|-9------------------------------|
|-9-10-12----------h12-|-----10-12p10----10---9-(9)b12--|
|----------------------|--------------12----------------|
|----------------------|--------------------------------|
|----------------------|--------------------------------|
|
| E  E  H                E    E  H
|----------------------|--------------------------------|
|----------------------|--------------------------------|
|----------------------|--------------------------------|
|-------0--------------|---------0----------------------|
|----0-----------------|------3-------------------------|
|-1--------------------|-2------------------------------|


  |-3--|  |-3--|  |--3--|
  E E  E  E E  E  E  E  E     S  H  +S      S S
|-------------------12-10---|---12-(12)b13-11----|
|-----------9-10-12---------|--------------------|
|-8-9-10-12-----------------|--------------------|
|---------------------------|--------------------|
|---------------------------|--------------------|
|---------------------------|--------------------|
|
| E E  H                         E   E      H
|---------------------------|--------------------|
|---------------------------|--------------------|
|---------------------------|--------------------|
|------0--------------------|---------------0----|
|---3-----------------------|--------2-----------|
|-4-------------------------|----0---------------|


   E  E  S  S  E  E  E    E  E  E  E  E  E
|----------------------|-------------------|
|-15-13-12h13----12----|-------------------|
|-------------14----12-|-------------------|
|----------------------|-14-12-------------|
|----------------------|-------15-14-12----|
|----------------------|----------------12-|
|
|  E  E  H                E  E  H
|----------------------|-------------------|
|----------------------|-------------------|
|----------------------|-------------------|
|--------0-------------|--------0----------|
|-----0----------------|-----3-------------|
|--1-------------------|--2----------------|


                                      ~~
                 |-3-|
   S  +S      E  E E E +S  E +S       H.
|-----------------------------------|-----------|
|-----------------------------------|-----------|
|-----------------------------------|-----------|
|-----------------------------------|-----------|
|-----------------------------------|-----------|
|-12-(12)b15r12-10-8-5-(5)-7-(7)b8r=|=7---------|
|
|  E   E      H                       E  E H
|-----------------------------------|-----------|
|-----------------------------------|-----------|
|-----------------------------------|-----------|
|-------------0---------------------|------0----|
|------3----------------------------|----2------|
|--1--------------------------------|-0---------|


 4/4
  Gtrs I, II
                        PM--|
  E E E S S S S E E E   S S S E E E S S S S E S
|---------------------|-------------------------|
|---------------------|-------------------------|
|---------------------|-------------------------|
|-8-7-8-6-5-----8-7-8-|-------8-7-8-6-5-----8-7-|
|-5-4-5-----6-5-5-4-5-|-8-8-8-5-4-5-----6-5-5-4-|
|---------------------|-------------------------|


                                                    3/4
        PM--|                       PM--|                        PM--|
  +S  E S S S E E E S S S S   E E E S S S E E E S    S S S E E E S S S
|---------------------------|---------------------||--------------------|
|---------------------------|---------------------||--------------------|
|---------------------------|---------------------||--------------------|
|-(7)-8-------8-7-8-6-5-----|-8-7-8-------8-7-8-6-||-5-----8-7-8--------|
|-(4)-5-8-8-8-5-4-5-----6-5-|-5-4-5-8-8-8-5-4-5---||---6-5-5-4-5-8-8-8--|
|---------------------------|---------------------||--------------------|


 4/4
       PM------|           PM----------|
  Q.   E E E E E   Q  Q.   E E E   E E E Q  Q  E
|----------------|---------------|---------------|
|----------------|---------------|---------------|
|-4--------------|---------------|-------------4-|
|-4------5---7---|-6--4----5---6-|---7---6--4--4-|
|-2----0-3-0-5-0-|-6--5----3-0-4-|-0-5-0-6--5--2-|
|----------------|---------------|---------------|


                                     D.S. al Coda
        PM------|           PM----------|
  +Q.   E E E E E   Q  Q.   E E E   E E E Q  Q.
|-----------------|---------------|---------------|
|-----------------|---------------|---------------|
|-(4)-------------|---------------|---------------|
|-(4)-----5---7---|-6--4----5---6-|---7---6--4----|
|-(2)---0-3-0-5-0-|-6--5----3-0-4-|-0-5-0-6--5----|
|-----------------|---------------|---------------|


    Q=120
    &
                                 5/4
    Gtr I
            PM--|                         PM----|
    S S S S S S S  E.   E.  E.    S S S S S S S S  E.   E.  E.  E.
||-----------------------------||----------------------------------|
||o----------------------------||----------------------------------|
||-----------------------------||----------------------------------|
||--6-5-----------10--(10)--9--||-6-5-------------10--(10)--9--10--|
||o-----7-6--------6-------11--||-----7-6----------6-------11---8--|
||----------0-0-0-------8---7--||---------0-0-0-0-------8---7------|
|
|   Gtr II
|           PM--|                         PM----|
|   S S S S S S S  E.   E.  E.    S S S S S S S S  E.   E.  E.  E.
||-----------------------------||----------------------------------|
||o----------------------------||----------------------------------|
||-----------------------------||----------------------------------|
||--6-5-----------10--(10)--9--||-6-5-------------10--(10)--9--10--|
||o-----7-6--------6-------11--||-----7-6----------6-------11---8--|
||----------0-0-0-------8---7--||---------0-0-0-0-------8---7------|


 4/4
           PM--|
  S S  S S S S S  E.   E.  E.
|-----------------------------||
|-----------------------------||
|-----------------------------||
|-6-5------------10--(10)--9--||
|------7-6--------6-------11--||
|----------0-0-0-------8---7--||
|
|          PM--|
| S S  S S S S S  E.   E.  E.
|-----------------------------||
|-----------------------------||
|-----------------------------||
|-9-8------------10--(10)--9--||
|-----10-9--------6-------11--||
|----------0-0-0-------8---7--||


 5/4                                   2/4
           PM----|                               PM--|
  S S  S S S S S S  E.   E.  E.  E.  3x S S  S S S S S S
|------------------------------------||------------------|
|-----------------------------------o||------------------|
|------------------------------------||------------------|
|-6-5--------------10--(10)--9--10---||-6-5--------------|
|------7-6----------6-------11---8--o||------7-6---------|
|----------0-0-0-0-------8---7-------||----------0-0-0---|
|
|          PM----|                               PM--|
| S S  S S S S S S  E.   E.  E.  E.  3x S S  S S S S S S
|------------------------------------||------------------|
|-----------------------------------o||------------------|
|------------------------------------||------------------|
|-9-8--------------10--(10)--9--10---||-9-8--------------|
|-----10-9----------6-------11---8--o||-----10-9---------|
|----------0-0-0-0-------8---7-------||----------0-0-0---|


 4/4
  Gtrs I, II
  |-3-|
  S S S S S S S S S S S S S S S S S
|-----------------------------------|
|-----------------------------------|
|-2h3p2-----------1-2-1-------------|
|-------4-2-1-2-4-------4-2-1-------|
|-----------------------------4-2-0-|
|-----------------------------------|


  Q=145
 4/4
       PM------|           PM----------|
  Q.   E E E E E   Q  Q.   E E E   E E E Q  Q  E
|----------------|---------------|---------------|
|----------------|---------------|---------------|
|-4--------------|---------------|-------------4-|
|-4------5---7---|-6--4----5---6-|---7---6--4--4-|
|-2----0-3-0-5-0-|-6--5----3-0-4-|-0-5-0-6--5--2-|
|----------------|---------------|---------------|


          PM------|           PM----------|
    +Q.   E E E E E   Q  Q.   E E E   E E E Q  Q  E  5x
||------------------|---------------|----------------||
||o-----------------|---------------|---------------o||
||--(4)-------------|---------------|-------------4--||
||--(4)-----5---7---|-6--4----5---6-|---7---6--4--4--||
||o-(2)---0-3-0-5-0-|-6--5----3-0-4-|-0-5-0-6--5--2-o||
||------------------|---------------|----------------||


        Gtr IV
  +S  S  Q.   +H
|-------23---(23)----*|
|--------------------*|
|-(4)----------------*|
|-(4)----------------*|
|-(2)----------------*|
|--------------------*|



Duration Legend
---------------
W - whole; H - half; Q - quarter; E - 8th; S - 16th; T - 32nd; X - 64th; a - acciaccatura
+ - note tied to previous; . - note dotted; .. - note double dotted
Uncapitalized letters represent notes that are staccato (1/2 duration)
Irregular groupings are notated above the duration line
Duration letters will always appear directly above the note/fret number it represents the
duration for.  Duration letters with no fret number below them represent rests.  Multi-
bar rests are notated in the form Wxn, where n is the number of bars to rest for.  Low
melody durations appear below the staff

Tablature Legend
----------------
 h   - hammer-on
 p   - pull-off
 b   - bend
 pb  - pre-bend
 r   - bend release (if no number after the r, then release immediately)
 /\  - slide into or out of (from/to "nowhere")
 s   - legato slide
 S   - shift slide
 - natural harmonic
[n]  - artificial harmonic
n(n) - tapped harmonic
 ~   - vibrato
 tr  - trill
 T   - tap
 TP  - trem. picking
 PM  - palm muting
\n/  - tremolo bar dip; n = amount to dip
 \n  - tremolo bar down
 n/  - tremolo bar up
/n\  - tremolo bar inverted dip
 =   - hold bend; also acts as connecting device for hammers/pulls
 <> - volume swell (louder/softer)
 x   - on rhythm slash represents muted slash
 o   - on rhythm slash represents single note slash

Misc Legend
-----------
 |  - bar
||  - double bar
||o - repeat start
o|| - repeat end
*|  - double bar (ending)
 :  - bar (freetime)
 $  - Segno
 &  - Coda
Tempo markers -  = BPM(8/16=s8/s16), where s8 = swing 8ths, s16 = swing 16ths

Добавлено: 15.04.2012
Другие материалы по этой песне:

Страница создана 12.03.2012
http://primanota.ru/believer/future-mind-chords.htm
Привет, Гость.
Предлагаем пройти революционный курс по гитаре.
Подарок от PrimaNota.Ru, забирай!