PrimaNota.ru - самый крупный в мире бесплатный архив песенных текстов, аккордов, табулатур и нот


Believer - End Of Infinity - таба, видео

Регистрация Запомнить меня
Войти через:  Facebook Google Twitter Vk Yandex Mail.ru

Believer - End Of Infinity - таба, видео

Печатать
Просмотров: 138
End Of Infinity by Believer

Tabbed by: breadtruck
Email: vegas_poker101@yahoo.co.uk

Tuning: D standard

The riffs are in no particular order. Some you will have to repeat at different parts of the song.

Intro/Chorus riff
D|---------------------------|
A|---------------------------|
F|----------------9999-7777--|
C|---------------------------| 
G|--7777-10101010------------|
D|---------------------------|
    .... . . . .  .... ....

D|----------------------|
A|----------------------|
F|----------------------|
C|----------------------|
G|---2-2-5--------------|
D|-0-------0-5-58-0-3-2-|
   Ending 1

D|------------------------------------------------------------|
A|------------------------------------------------------------|
F|------------------------------8-9----9-99-9-99-8--------6---|
C|------------------------------6-7----9-99-9-99-9------------| 
G|---2-2-5----------------------6-7----7-77-7-77-6----6-9---9-|
D|-0------0-5-58-0-3-3-7-0-2-26-------------------------------|
   Ending 2                              ..   ..      . . . .
  
Verse
D|------------------------------| 
A|------------------------------|
F|--9~--9-99-9-99-8--------6----|
C|--9~--9-99-9-99-9-------------|
G|--7~--7-77-7-77-6----6-9---9--|
D|------------------------------|
          ..   ..      . . . .

D|----------------------------|-----------------|
A|----------------------------|-----------------|
F|----------------------------|-----------------|
C|----------------------------|-222-2-222-2-222-| 
G|---------6-9-----------6-9--|-222-2-222-2-222-|
D|-5-0-5-0-----5-0-5-0-7------|-000-0-000-0-000-|
   . . . . . . . . . . . . .    ... . ... . ...  

D|------------------------------------------------------| 
A|------------------------------------------------------|
F|------4/7------4/7------4/7-----4/7-------------------|
C|-2-2-------2-2-----2-2------2-2------222-2-222-2-222--|
G|-2-2--2/5--2-2-2/5-2-2--2/5-2-2-2/5--222-2-222-2-222--|
D|-0-0-------0-0-----0-0------0-0------000-0-000-0-000--|
                                       ... . ... . ...
Bridge
D|----------------------------------------------|
A|----------------------------------------------|
F|----------------------------------------------|
C|-2-2-2-------------------9-9-9~-5-4-5-5/10-9--| 
G|-2-2-2--779910109999-----9-9-9~-5-4-5-5/10-9--|
D|-0-0-0--------------8888-7-7-7~-3-2-3-3/8--7--|
   . . .  ................ . .    . . .

Outro variation of chorus riff
D|-------------------------------------|
A|-------------------------------------|
F|-------------------------------------|
C|-------------------------------------| 
G|---2-2-5-----------------------4242--|
D|-0------0-5-58-0-3-3-7-0-2-26--2020--|
                                 ....
End on
D|-------|
A|-------|
F|--8/9--|
C|---/---|
G|--6/7--|
D|-------|

That should be all the parts.

                   
Добавлено: 10.07.2012
Вам также может быть интересно:
Другие материалы по этой песне:
  • Аккорды и текст

Страница создана 10.07.2012
http://primanota.ru/believer/end-of-infinity-chords.htm
Привет, Гость.
Предлагаем пройти революционный курс по гитаре.
Подарок от PrimaNota.Ru, забирай!