PrimaNota.ru - самый крупный в мире бесплатный архив песенных текстов, аккордов, табулатур и нот


Believer - Dimentia - текст песни, таба, бас-таба, видео

Регистрация Запомнить меня
Войти через:  Facebook Google Twitter Vk Yandex Mail.ru

Believer - Dimentia - текст песни, таба, бас-таба, видео

Печатать
Просмотров: 176
Уроки эстрадного вокала в Санкт-Петербурге
As recorded by Believer
(From the 1993 Album DIMENSIONS)

Transcribed by Ibeanez
        



Gtr I (D G C F A D) - 'Acoustic'
Gtr II (D G C F A D) - 'Rhythm 1'
Gtr III (D G C F A D) - 'Rhythm 2/ Lead'
Gtr IV (D G C F A D) - 'Viola'

    Q=145
   4/4
    Gtr I
    E E E E E E E E   E E E E E E E E   E E E E E E E E   E E E E E E E E  4x
||------------------|-----------------|-----------------|------------------||
||o-----------------|---------0---3---|-----------------|-----------------o||
||------0---0-------|-0-----2---2---2-|-----0---0-------|-0----------------||
||----2---2---2---2-|---0-4-----------|---2---2---2---2-|---2-----0-----0--||
||o-------------3---|-----------------|-------------3---|-------0-----0---o||
||--0---------------|-----------------|-0---------------|-----3-----2------||


  W          +W            W          +W
|----------|------------|-!0--------|-(0)----|
|----------|------------|-!0--------|-(0)----|
|----------|------------|-!0--------|-(0)----|
|----------|------------|-!2--------|-(2)----|
|-2--------|-(2)--------|-!2--------|-(2)----|
|-0--------|-(0)--------|-!0--------|-(0)----|


    $
    E E E E E E E E   E E E E E E E E   E E E E E E E E    E E E E E E E E  4x
||------------------|-----------------|------------------|------------------||
||o-----------------|---------0---4---|------------------|-----------------o||
||------0---0-------|-0-----3---3---3-|-----0---0--------|-0----------------||
||----3---3---3---3-|---3-5-----------|---3---3---3---3--|---3-----0-----0--||
||o-------------4---|-----------------|-------------4----|-------0-----0---o||
||--1---------------|-----------------|-1----------------|-----4-----3------||


  Gtrs II, III
                       PM
  E E E E E E Q    +E  E E E E  E E E
|----------------|--------------------|
|----------------|--------------------|
|-------------2--|-(2)----------------|
|-------------2--|-(2)-----4s7--------|
|-3---3s4---4-4--|-(4)---6------------|
|---1-----4---2--|-(2)-4-------10-9-0-|


                       PM--------------|
  E E E E E E Q    +E  E S S E E E S S E
|----------------|-------------------------|
|----------------|-------------------------|
|-------------2--|-(2)---------------------|
|-------------2--|-(2)---------------------|
|-3---3s4---4-4--|-(4)-2-2-2-2---2-2-2-2---|
|---1-----4---2--|-(2)-0-0-0-0---0-0-0-0---|


  PM|
  E E E E E  E E E   E E E E E E Q
|------------------|----------------|
|------------------|----------------|
|------------------|-------------2--|
|-------4s7--------|-------------2--|
|-----6------------|-3---3s4---4-4--|
|-0-4-------10-9-0-|---1-----4---2--|


                              To CoD.S. al Coda
      PM
  +E  E E E E  E E E   E E E E E E Q   +W
|--------------------|---------------|----------|
|--------------------|---------------|----------|
|-(2)----------------|-------------2-|-(2)------|
|-(2)-----4s7--------|-------------2-|-(2)------|
|-(4)---6------------|-3---3s4---4-4-|-(4)------|
|-(2)-4-------10-9-0-|---1-----4---2-|-(2)------|


    &
            PM--------------------|
        +E  E S S E E E S S E   E E E E E  E E E   E E E E E E Q
||----------------------------|------------------|----------------|
||o---------------------------|------------------|----------------|
||------(2)-------------------|------------------|-------------2--|
||------(2)-------------------|-------4s7--------|-------------2--|
||o-----(4)-2-2-2-2---2-2-2-2-|-----6------------|-3---3s4---4-4--|
||------(2)-0-0-0-0---0-0-0-0-|-0-4-------10-9-0-|---1-----4---2--|


                       1.                 2.
                                         4/4                2/4
      PM
  +E  E E E E  E E E   E E E E E E Q       E E E E E E E E   H
|--------------------|-----------------||------------------|------|
|--------------------|----------------o||------------------|------|
|-(2)----------------|-------------2---||--------------2---|------|
|-(2)-----4s7--------|-------------2---||--------------2---|------|
|-(4)---6------------|-3---3s4---4-4--o||--3---3s4---4-4---|------|
|-(2)-4-------10-9-0-|---1-----4---2---||----1-----4---2---|------|


 4/4
  Q.    E  +H        +H     Q   Q    Q.    E  +H        +H     Q   Q
|-----------------|----------------|-----------------|----------------|
|-----------------|----------------|-----------------|----------------|
|-----------------|----------------|-----------------|----------------|
|------10-(10)----|-(10)-------10--|------10-(10)----|-(10)-------10--|
|-------8--(8)----|--(8)----6---8--|-6-----8--(8)----|--(8)----6---8--|
|-6---------------|---------6------|-6---------------|---------6------|


  Q.   E +H       +H     Q  Q    Q.   E +H       +H     Q  Q
|---------------|--------------|---------------|----------------|
|---------------|--------------|---------------|----------------|
|---------------|--------------|---------------|----------------|
|------9-(9)----|-(9)-------9--|------9-(9)----|-(9)-------9----|
|------7-(7)----|-(7)----5--7--|-5----7-(7)----|-(7)----5--7----|
|-5-------------|--------5-----|-5-------------|--------5-------|


  Q  +E    E E  S   S   +Q      +W            +H     Q   Q    Q.    E   +H
|----------------------------|-------------|----------------|------------------|
|----------------------------|-------------|----------------|------------------|
|----------------------------|-------------|----------------|------------------|
|---------11---11--10--(10)--|-(10)--------|-(10)-------10--|------10--(10)----|
|-5--------9----9---8---(8)--|--(8)--------|--(8)----6---8--|-6-----8---(8)----|
|-5--(5)/-----------6---(6)--|--(6)--------|--(6)----6------|-6----------------|


   +H     Q   Q    Q.   E +H       +H     Q  Q    Q.   E +H       +H     Q  Q
|----------------|---------------|--------------|---------------|----------------|
|----------------|---------------|--------------|---------------|----------------|
|----------------|---------------|--------------|---------------|----------------|
|-(10)-------10--|------9-(9)----|-(9)-------9--|------9-(9)----|-(9)-------9----|
|--(8)----6---8--|------7-(7)----|-(7)----5--7--|-5----7-(7)----|-(7)----5--7----|
|---------6------|-5-------------|--------5-----|-5-------------|--------5-------|


  Q  +E    E E  S  S  +Q     +H.   Q     +W
|-------------------------|-----------|-------|
|-------------------------|-----------|-------|
|-------------------------|-----------|-------|
|---------12---12-11-(11)-|-(11)--11--|-(11)--|
|-5-------10---10--9--(9)-|--(9)---9--|--(9)--|
|-5--(5)/----------7--(7)-|--(7)---7--|--(7)--|


   +E   E  +Q  E E Q   +E  E  +Q  Q S S E      H.  +E   E
|--------------------|--------------------|------------------|
|--------------------|--------------------|------------------|
|--------------------|-----9--(9)-8-------|------------------|
|-(11)--8--(8)-9-8-9-|-(9)-9--(9)-8-9-9---|---12--(12)--9----|
|--(9)--8--(8)-9-8-9-|-(9)-7--(7)-6-9-9---|---10--(10)--9----|
|--(7)--6--(6)-7-6-7-|-(7)----------7-7---|----8---(8)--7----|


  +Q   E E  Q.    E      +Q  Q.   Q.     Q    Q   H
|---------------------|---------------|------------------|
|---------------------|---------------|------------------|
|----------------10---|-(10)-9----8---|-11---12--11------|
|-(9)-10-9-10----10---|-(10)-9----8---|-11---12--11------|
|-(9)-10-9-10-----8---|--(8)-7----6---|--9---10---9------|
|-(7)--8-7--8---------|---------------|--7----8---7------|


   +W        +E  E  +Q    E E Q   +E  E  +Q    Q  S e S
|--------|----------------------|--------------------------|
|--------|----------------------|--------------------------|
|-(11)---|--(11)----------------|-----9--(9)---8-----------|
|-(11)---|--(11)-8--(8)---9-8-9-|-(9)-9--(9)---8--9-9------|
|--(9)---|---(9)-8--(8)---9-8-9-|-(9)-7--(7)---6--9-9------|
|--(7)---|---(7)-6--(6)---7-6-7-|-(7)-------------7-7-8----|


 3/4
  Gtr III
  E E E E E  E    E  E  E  E E E   E E E E E  E    E  E  E  E E E
|--------------|-----------------|--------------|-----------------|
|--------------|-----------------|--------------|-----------------|
|--------------|-----------------|--------------|-----------------|
|-----6---6s10-|-----------------|-----6---6s10-|-----------------|
|---7---7------|-11----11------7-|---7---7------|-11----11------7-|
|-8------------|----12----12S8---|-8------------|----12----12S8---|


  Gtr II
  PM----------|         PM-----------|
  S  S S  S S S  E  +E  S S   S  S S S  Q   Q
|---------------------------|------------------|
|---------------------------|------------------|
|---------------------------|------------------|
|---------------10-(10)-----|----------10--10--|
|----------------8--(8)-----|-----------8---8--|
|-6--6-6--6-6-6--6--(6)-6-6-|-6--6-6-6--6---6--|
|
| Gtr III
|                             ~~
| Q.   Q.                     H.
|---------------------------|------------------|
|---------------------------|------------------|
|---------------------------|-3----------------|
|-3-------------------------|------------------|
|------1--------------------|------------------|
|---------------------------|------------------|


   PM---------|         PM-----------|
   S  S S S S S  E  +E  S S   S S  S S  Q    Q
|---------------------------|-------------------|
|---------------------------|-------------------|
|---------------------------|-------------------|
|---------------10-(10)-----|----------10---10--|
|----------------8--(8)-----|-----------8----8--|
|--6--6-6-6-6-6--6--(6)-6-6-|-6-6--6-6--6----6--|
|
|  Q.       Q           S S   E E  E E  E E
|---------------------------|-------------------|
|---------------------------|-------------------|
|---------------------------|-------------------|
|---------------------------|-------------------|
|-/6--------5-----------6p5-|---5---------------|
|---------------------------|-8---/8-6--5-6-----|


  PM------------|       PM----------|
  S  S S S   S  S E +E  S S   S S S S  Q      Q
|---------------------------|---------------------|
|---------------------------|---------------------|
|---------------------------|---------------------|
|-----------------9-(9)-----|----------9------9---|
|-----------------7-(7)-----|----------7------7---|
|-5--5-5-5---5--5-5-(5)-5-5-|-5-5-5-5--5------5---|
|
| ~~
| Q.         Q.               Q     E +E     +Q
|---------------------------|---------------------|
|---------------------------|---------------------|
|---------------------------|---------------------|
|---------------------------|-------7-(7)b8r=(7)--|
|---------------------------|-0-------------------|
|-5--------/10\-------------|---------------------|


   PM-------------|        PM-------------|
   S   S  S  S  S  S E +E  S S    S  S  S  S  Q     Q
|------------------------------|-----------------------------|
|------------------------------|-----------------------------|
|------------------------------|-----------------------------|
|--------------------9-(9)-----|--------------9-----9--------|
|--------------------7-(7)-----|--------------7-----7--------|
|--5---5--5--5--5--5-5-(5)-5-5-|--5--5--5--5--5-----5--------|
|
|                                                |--3--|
|  E.  S  E  E  E  E              E  E  E  S  S  S  S  S  E
|--------------10-12-----------|-12-12-12-13p12-12-13-12-10--|
|-10--10-10s13-----------------|-----------------------------|
|------------------------------|-----------------------------|
|------------------------------|-----------------------------|
|------------------------------|-----------------------------|
|------------------------------|-----------------------------|


   PM---------|             PM-------------|
   S S  S S S S  E      +E  S S   S   S  S   S   Q          Q
|-------------------------------|------------------------------------|
|-------------------------------|------------------------------------|
|-------------------------------|------------------------------------|
|---------------10-----(10)-----|---------------10---------10--------|
|----------------8------(8)-----|----------------8----------8--------|
|--6-6--6-6-6-6--6------(6)-6-6-|-6---6--6---6---6----------6--------|
|
|  E    e        H                   +S     +S      e   e   e.   e.
|-12----------------------------|------------------------------------|
|------13-------13b15===========|===(13)r==(13)----11------11---13---|
|-------------------------------|----------------------14------------|
|-------------------------------|------------------------------------|
|-------------------------------|------------------------------------|
|-------------------------------|------------------------------------|


   PM--------------------|                  PM-------------|
   S S   S     S   S     S   E      +E      S S    S  S  S  S  Q     Q
|-----------------------------------------------|--------------------------|
|-----------------------------------------------|--------------------------|
|-----------------------------------------------|--------------------------|
|---------------------------10-----(10)---------|-------------10----10-----|
|----------------------------8------(8)---------|--------------8-----8-----|
|--6-6---6-----6---6-----6---6------(6)-----6-6-|--6--6--6--6--6-----6-----|
|
|                                |---3---|               |--3--|
|  E    +E        +E        +E   S   S   S  E      E  E  S  S  S  E  E  E
|-----------------------------------------------|--------------------------|
|-11---(11)b13r==(11)b13r==(11)-10--11--10------|-10-----------------------|
|------------------------------------------12---|----12-10-12-10----10-----|
|-----------------------------------------------|----------------14----14--|
|-----------------------------------------------|--------------------------|
|-----------------------------------------------|--------------------------|


   PM--------|           PM----------|
   S S S S S S E +E      S S   S S S S  Q   Q
|----------------------------|-----------------|
|----------------------------|-----------------|
|----------------------------|-----------------|
|--------------9-(9)---------|----------9---9--|
|--------------7-(7)---------|----------7---7--|
|--5-5-5-5-5-5-5-(5)-----5-5-|-5-5-5-5--5---5--|
|
|                 |-3--|
|  E   E   E   E  S  S S E     S S E    E E Q
|----------------------------|-----------------|
|----------------------------|-----------------|
|----------------------------|---------/8---5--|
|-/7---5---3---5--2--3-2-0---|-2-0--------5----|
|----------------------------|-----3-----------|
|----------------------------|-----------------|


  PM--------|                PM------------|
  S S S S S  S       E  +E   S  S   S S  S S  Q   Q
|---------------------------------|------------------|
|---------------------------------|------------------|
|---------------------------------|------------------|
|--------------------9--(9)-------|-----------9---9--|
|--------------------7--(7)-------|-----------7---7--|
|-5-5-5-5-5--5-------5--(5)--5--5-|-5-5--5-5--5---5--|
|
|                                          ~~~~~~
| Q         +E      +Q  +S  +S      E E  E E +Q
|---------------------------------|------------------|
|-8---------(8)b10==(8)-(8)r(8)---|-6s8--------------|
|---------------------------------|-----10-9-(9)-----|
|---------------------------------|------------------|
|---------------------------------|------------------|
|---------------------------------|------------------|


  E  E E E E  E    E   E  E  E E E   E  E E E E  E    E   E  E  E E E
|---------------|------------------|---------------|-------------------|
|---------------|------------------|---------------|-------------------|
|---------------|------------------|---------------|-------------------|
|------6---6s10-|------------------|------6---6s10-|-------------------|
|----7---7------|-11-----11------7-|----7---7------|-11-----11------7--|
|-8-------------|-----12----12S8---|-8-------------|-----12----12S8----|
|
| H           Q    H.                H.               H.
|---------------|------------------|---------------|-------------------|
|---------------|------------------|---------------|-------------------|
|-9\------------|------------------|---------------|-------------------|
|---------------|------------------|---------------|-------------------|
|---------------|------------------|---------------|-------------------|
|---------------|------------------|---------------|-------------------|


  Gtr II
  Q.       Q      E    Q    Q    Q     Q.        Q     E    Q    Q    Q
|-------------------|----------------|-------------------|---------------|
|-------------------|----------------|-------------------|---------------|
|---------10--------|------10---10---|-----------6-------|-------6----6--|
|----------8--------|-------8----8---|-----------4-------|-------4----4--|
|-6-------(6)-----6-|--6----6----6---|-2--------(2)----2-|--2----2----2--|
|-------------------|----------------|-------------------|---------------|
|
| Gtr III
| E  E  E  E   E  E    E E  E E  E E   Q   E  E  E   E      E E  E Q.
|-------------------|----------------|-------------------|---------------|
|----------------11-|----------------|-------------------|---------------|
|------10-----10----|-10---10--------|-------11-----10---|---------------|
|----8-----8--------|----8----8----8-|----11----11-------|-11-9-11-------|
|-6-----------------|------------6---|-------------------|---------9\----|
|-------------------|----------------|-7-----------------|---------------|


  PM-----------------------|
  E E E E E E   E E E E  E E   Q.     Q   E   Q   Q   Q
|-------------|--------------|--------------|----------------|
|-------------|--------------|--------------|----------------|
|-------------|--------------|--------7-----|-----7---7------|
|-4-4-4-4-4-4-|-4-4-4-4--4-4-|-5------5-----|-----5---5------|
|-2-2-2-2-2-2-|-2-2-2-2--2-2-|-3------3---3-|-3---3---3------|
|-0-0-0-0-0-0-|-0-0-0-0--0-0-|--------------|----------------|
|
| E E E E E E   E E E E  E E   E  E E E E E   E E E E E E
|-------8---8-|---8----------|--------------|----------------|
|-----8---8---|-8---8--------|------3---3-4-|-3---3----------|
|---9---------|-------9\---5-|--------------|----------------|
|-------------|----------3---|----5---5-----|---5---5---5----|
|-8-----------|--------------|-3------------|---------3------|
|-------------|--------------|--------------|----------------|


  Q.       Q      E    Q    Q    Q     Q.       Q      E    Q    Q     Q
|-------------------|----------------|-------------------|-----------------|
|-------------------|----------------|-------------------|-----------------|
|---------10--------|------10---10---|----------6--------|-------6-----6---|
|----------8--------|-------8----8---|----------4--------|-------4-----4---|
|-6-------(6)-----6-|--6----6----6---|-2-------(2)-----2-|--2----2-----2---|
|-------------------|----------------|-------------------|-----------------|
|
| E  E  E  E   E  E    E E  E E  E E   E  E  E  E   E  E    E E  E  E  E E
|-------------------|----------------|-------------------|-----------------|
|----------------11-|----------------|-------------------|-----------------|
|------10-----10----|-10---10--------|---------11-----10-|---------11\-----|
|----8-----8--------|----8----8----8-|------11-----11----|-11---11---------|
|-6-----------------|------------6---|----9--------------|----9----------9-|
|-------------------|----------------|-7-----------------|-------------7---|


  PM-------------------------|
  E  E E E E E   E  E E  E E  E   Q.     Q   E   Q   Q   Q
|--------------|----------------|--------------|----------------|
|--------------|----------------|--------------|----------------|
|--------------|----------------|--------7-----|-----7---7------|
|-4--4-4-4-4-4-|-4--4-4--4-4--4-|-5------5-----|-----5---5------|
|-2--2-2-2-2-2-|-2--2-2--2-2--2-|-3------3---3-|-3---3---3------|
|-0--0-0-0-0-0-|-0--0-0--0-0--0-|--------------|----------------|
|
| E  E E E E E   E  E E  E E  E   E  E E E E E   E E E E E E
|--------8---8-|----------------|--------------|----------------|
|------8---8---|-8----8---------|------3---3-4-|-3---3----------|
|--------------|----------------|--------------|----------------|
|---10---------|---10---10---10-|----5---5-----|---5---5---5----|
|-8------------|-----------8----|-3------------|---------3------|
|--------------|----------------|--------------|----------------|


 4/4
  Gtr II
  Q.    Q.    Q     +W              Q.    Q.    Q     +E   E  +H.
|----------------|----------------|----------------|--------------------------|
|----------------|----------------|----------------|--------------------------|
|------------10--|-(10)-----------|------------10--|-(10)---------------------|
|-9----12----10--|-(10)-----------|-9----12----10--|-(10)-10-(10)-------------|
|-7----10-----8--|--(8)-----------|-7----10-----8--|--(8)--8--(8)-------------|
|-0-----8--------|----------------|-0-----8--------|-------6--(6)-------------|
|
| Gtr III
| Q.    Q.    Q     +E   E H.       Q.    Q.    Q     +E   E  +Q      E  E Q
|----------------|---------8------|----------------|-----------------------8--|
|----------------|-------8--------|----------------|---------------------8----|
|------------10--|-(10)-----------|------------10--|-(10)------------10-------|
|-9----12----10--|-(10)-----------|-9----12----10--|-(10)-10-(10)---(10)------|
|-7----10-----8--|--(8)-----------|-7----10-----8--|--(8)--8--(8)----(8)------|
|-0-----8--------|----------------|-0-----8--------|-------6--(6)-------------|


  Q.    Q.    Q     +W                 Q.    Q.    Q     +E   E  +H.
|----------------|-------------------|----------------|-----------------|
|----------------|-------------------|----------------|-----------------|
|------------10--|-(10)--------------|----------------|-----------------|
|-9----12----10--|-(10)--------------|-9----12----10--|-(10)-11-(11)----|
|-7----10-----8--|--(8)--------------|-7----10-----8--|--(8)--9--(9)----|
|-0-----8--------|-------------------|-0-----8-----8--|--(8)--9--(9)----|
|
| Q.    Q.    Q     +E  E Q  E E Q     Q.    Q.    Q     +E   E  +H.
|----------------|--------8------8---|----------------|-----------------|
|----------------|------8------8-----|----------------|-----------------|
|------------10--|-(10)-----10-------|----------------|-----------------|
|-9----12----10--|-(10)--------------|-9----12----10--|-(10)-11-(11)----|
|-7----10-----8--|--(8)--------------|-7----10-----8--|--(8)--9--(9)----|
|-0-----8--------|-------------------|-0-----8-----8--|--(8)--9--(9)----|


  Gtr I
  E E E E E E E E   E E E E E E E E   E E E E E E E E   E E E E E E E E
|-----------------|-----------------|-----------------|-----------------|
|-----------------|---------0---3---|-----------------|-----------------|
|-----0---0-------|-0-----2---2---2-|-----0---0-------|-0---------------|
|---2---2---2---2-|---0-4-----------|---2---2---2---2-|---2-----0-----0-|
|-------------3---|-----------------|-------------3---|-------0-----0---|
|-0---------------|-----------------|-0---------------|-----3-----2-----|


  E E E E E E E E   E E E E E E E E   E E E E E E E E   E E E E E E E E
|-----------------|-----------------|-----------------|-----------------|
|-----------------|---------0---3---|-----------------|-----------------|
|-----0---0-------|-0-----2---2---2-|-----0---0-------|-0---------------|
|---2---2---2---2-|---0-4-----------|---2---2---2---2-|---2-----0-----0-|
|-------------3---|-----------------|-------------3---|-------0-----0---|
|-0---------------|-----------------|-0---------------|-----3-----2-----|


   E E E E E E E E     E  E  E  E  E E  E  E
|------------------|-------------------------|
|------------------|---------------0----3----|
|------0---0-------|---0--------2----2-----2-|
|----2---2---2---2-|------0--4---------------|
|--------------3---|-------------------------|
|--0---------------|-------------------------|
|
| Gtr IV
|  ~~~~~~~~~~~~~~~~~~~~~~~
|  W                  +Q     E  E  Q    E  E
|-12---------------|-(12)---10-12-12---10-12-|
|------------------|-------------------------|
|------------------|-------------------------|
|------------------|-------------------------|
|------------------|-------------------------|
|------------------|-------------------------|


   E  E E E E E  E E     E  E  E  E  E E E E
|--------------------|-----------------------|
|--------------------|-----------------------|
|-------0---0--------|---0-------------------|
|-----2---2---2----2-|------2--------0-----0-|
|----------------3---|------------0------0---|
|--0-----------------|---------3-------2-----|
|
|  ~~~                               ~~
|  H.            Q      +Q     E  E  H
|-12------------10---|-(10)------10-12-------|
|--------------------|--------12-------------|
|--------------------|-----------------------|
|--------------------|-----------------------|
|--------------------|-----------------------|
|--------------------|-----------------------|


    E  E  E E  E E  E E     E  E E E E E E E
|-----------------------|--------------------|
|-----------------------|------------0---3---|
|---------0----0--------|---0------2---2---2-|
|------2----2----2----2-|------0-4-----------|
|-------------------3---|--------------------|
|---0-------------------|--------------------|
|
|   ~~~~            ~~~~~~~~~~~~~~~~~~~~~~~~~~
|  +Q     Q    Q    Q      +W
|-(12)---10-------------|--------------------|
|-------------12---10---|-(10)---------------|
|-----------------------|--------------------|
|-----------------------|--------------------|
|-----------------------|--------------------|
|-----------------------|--------------------|


   E  E E E E E  E E     E   E  E E E E E E
|--------------------|----------------------|
|--------------------|----------------------|
|-------0---0--------|---0------------------|
|-----2---2---2----2-|-------2------0-----0-|
|----------------3---|------------0-----0---|
|--0-----------------|----------3-----2-----|
|
|~~~~~~~~~~~~~~~~~~
|  H.            Q      +H.  E  E
|--------------------|----------------------|
|--------------------|----------------------|
|-12------------11---|-(11)-11-12-----------|
|--------------------|----------------------|
|--------------------|----------------------|
|--------------------|----------------------|


   E  E E E E E  E     E     E    E    E   E  E  E  E  E
|------------------------|-------------------------------|
|------------------------|--------------------0-----3----|
|-------0---0------------|---0-------------2-----2-----2-|
|-----2---2---2--------2-|--------0----4-----------------|
|----------------3-------|-------------------------------|
|--0---------------------|-------------------------------|
|
| Gtr IV
|                                                   ~~~~~~
|  W                        +Q         E   E  Q  E  E
|------------------------|-------------------------------|
|------------------------|-------------------------------|
|------------------------|-------------------------------|
|-14---------------------|-(14)-------12--14-14-12-14----|
|------------------------|-------------------------------|
|------------------------|-------------------------------|
|
| Gtr III
|  H.            Q          +E   +E   +E   Q     Q     E
|------------------------|-------------------------------|
|------------------------|-------------------------------|
|---------------14b16====|=(14)-(14)r(14)-12----11----12-|
|------------------------|-------------------------------|
|------------------------|-------------------------------|
|------------------------|-------------------------------|


   E  E E E E E  E     E     E    E    E   E  E  E E  E
|------------------------|--------------------------------|
|------------------------|--------------------------------|
|-------0---0------------|---0----------------------------|
|-----2---2---2--------2-|--------2-----------0-------0---|
|----------------3-------|-----------------0-------0------|
|--0---------------------|-------------3---------2--------|
|
|~~~~~                                        ~~
|  W                         E    E    E   E  H
|------------------------|--------------------------------|
|------------------------|--------------------------------|
|------------------------|--11---12---11------------------|
|-14---------------------|----------------12-14-----------|
|------------------------|--------------------------------|
|------------------------|--------------------------------|
|
|  ~~~
|  H.            Q          +E   +E   +E   Q     Q    E
|------------------------|--------------------------------|
|------------------------|--------------------------------|
|-12------------14b16====|=(14)-(14)r(14)-12----11---11---|
|------------------------|--------------------------------|
|------------------------|--------------------------------|
|------------------------|--------------------------------|


    E  E  E E  E E  E     E     E   E   E    E    E   E E  E
|---------------------------|-----------------------------------|
|---------------------------|---------------------0-----3-------|
|---------0----0------------|---0------------2--------2----2----|
|------2----2----2--------2-|-------0---4-----------------------|
|-------------------3-------|-----------------------------------|
|---0-----------------------|-----------------------------------|
|
|  +Q     Q    H               +Q.  E   Q    Q
|---------------------------|-----------------------------------|
|---------------------------|-----------------------------------|
|---------------------------|-----------------------------------|
|-(14)---12-----------------|-----------------------------------|
|-------------14------------|-(14)-14--15---14------------------|
|---------------------------|-----------------------------------|
|
|         ~~
|   E  E  H         Q                  +E   +E   +E   Q    Q  E
|---------------------------|-----------------------------------|
|---------------------------|-----------------------------------|
|--11h12-12--------14b16====|=========(14)-(14)r(14)-12---11-12-|
|---------------------------|-----------------------------------|
|---------------------------|-----------------------------------|
|---------------------------|-----------------------------------|


    E   E  E E E E E  E          E    E    E   E  E  E E  E
|----------------------------|------------------------------|
|----------------------------|------------------------------|
|----------0---0-------------|---0--------------------------|
|-------2----2---2----2------|--------2-----------0-------0-|
|------------------3---------|-----------------0-------0----|
|---0------------------------|-------------3---------2------|
|
|  +W                           +Q    E    E   E  E  Q
|----------------------------|------------------------------|
|----------------------------|------------------------------|
|----------------------------|------------11--12-11-12------|
|----------------------------|-------14---------------------|
|-(14)-----------------------|-(14)-------------------------|
|----------------------------|------------------------------|
|
|       ~~~
|       H.            Q         +E   +E   +E   Q     Q    E
|----------------------------|------------------------------|
|----------------------------|------------------------------|
|------12------------14b16===|=(14)-(14)r(14)-12----11---11-|
|----------------------------|------------------------------|
|----------------------------|------------------------------|
|----------------------------|------------------------------|


   E  E  E  E  E  E  E     E     E    E    E   E  E  E  E  E
|----------------------------|-------------------------------|
|----------------------------|--------------------0-----3----|
|--------0-----0-------------|---0-------------2-----2-----2-|
|-----2-----2-----2--------2-|--------0----4-----------------|
|--------------------3-------|-------------------------------|
|--0-------------------------|-------------------------------|
|
|  Q     E  E  E  E  Q           E    E    E   E  E  E  E  E
|----------------------------|-------------------10-12-------|
|----------------------------|------------12--13-------12-13-|
|----------11-12-11-12-------|--12---14----------------------|
|-------14-------------------|-------------------------------|
|----------------------------|-------------------------------|
|----------------------------|-------------------------------|
|
|        ~~
|  E  E  H           Q          +E   +E   +E   Q     Q     E
|----------------------------|-------------------------------|
|-------------------13b15====|=(13)-(13)r(13)-12----10----12-|
|-11h12-------------14b16====|=(14)-(14)r(14)-12----11----12-|
|-------14-------------------|-------------------------------|
|----------------------------|-------------------------------|
|----------------------------|-------------------------------|


   E   E  E  E E E  E      E     E    E    E   E E  E E  E
|----------------------------|-----------------------------|
|----------------------------|-----------------------------|
|---------0----0-------------|---0-------------------------|
|------2-----2---2---------2-|--------2----------0-------0-|
|-------------------3--------|-----------------0------0----|
|--0-------------------------|-------------3--------2------|
|
|  E   Q  Q.        E      E     Q    E    E   H
|-10--12-----------10-----12-|--12---10---12--12-----------|
|----------------------------|-----------------------------|
|--------12------------------|-----------------------------|
|----------------------------|-----------------------------|
|----------------------------|-----------------------------|
|----------------------------|-----------------------------|
|
|  ~~~
|  H.               Q           +E   +E   +E   Q    Q    E
|----------------------------|-----------------------------|
|-12---------------13b15=====|=(13)-(13)r(13)-12---10---10-|
|-12---------------14b16=====|=(14)-(14)r(14)-12---11---11-|
|----------------------------|-----------------------------|
|----------------------------|-----------------------------|
|----------------------------|-----------------------------|


   E  E  E E  E E  E     E     E    E    E   E E  E E  E
|--------------------------|-----------------------------|
|--------------------------|-------------------0----3----|
|--------0----0------------|---0-------------2----2----2-|
|-----2----2----2--------2-|--------0----4---------------|
|------------------3-------|-----------------------------|
|--0-----------------------|-----------------------------|
|
|                  ~~~~~~~~~~~~~~~
|  Q     Q    Q    Q          +W
|-14----12---10---12-------|-(12)------------------------|
|--------------------------|-----------------------------|
|--------------------------|-----------------------------|
|--------------------------|-----------------------------|
|--------------------------|-----------------------------|
|--------------------------|-----------------------------|
|
|        ~~
|  E  E  H         Q          +E   +E   +E   Q    Q    E
|--------------------------|-----------------------------|
|-10h12-12--------13b15====|=(13)-(13)r(13)-12---10---12-|
|-11h12-12--------14b16====|=(14)-(14)r(14)-12---11---12-|
|--------------------------|-----------------------------|
|--------------------------|-----------------------------|
|--------------------------|-----------------------------|


   E   E  E  E  E  E  E     E     E    E    E   E E  E E  E
|-----------------------------|-----------------------------|
|-----------------------------|-----------------------------|
|---------0-----0-------------|---0-------------------------|
|------2-----2-----2--------2-|--------2----------0-------0-|
|---------------------3-------|-----------------0------0----|
|--0--------------------------|-------------3--------2------|
|
|  E   E  E  E  E  E  Q           Q         E   Q    Q    E
|-14--15-17-15-17-19-17-------|--15--------14--15---17---19-|
|-----------------------------|-----------------------------|
|-----------------------------|-----------------------------|
|-----------------------------|-----------------------------|
|-----------------------------|-----------------------------|
|-----------------------------|-----------------------------|
|
|  ~~~
|  H.                 Q          +E   +E   +E   Q    Q    E
|-----------------------------|-----------------------------|
|-12-----------------13b15====|=(13)-(13)r(13)-12---10---10-|
|-12-----------------14b16====|=(14)-(14)r(14)-12---11---11-|
|-----------------------------|-----------------------------|
|-----------------------------|-----------------------------|
|-----------------------------|-----------------------------|


   E  E  E  E  E  E   E     E     E    E    E   E  E  E E  E
|-----------------------------|------------------------------|
|-----------------------------|--------------------0----3----|
|--------0-----0--------------|---0-------------2-----2----2-|
|-----2-----2-----2---------2-|--------0----4----------------|
|---------------------3-------|------------------------------|
|--0--------------------------|------------------------------|
|
|  E  E  E  E  E  E  +Q           E    E    E   E  E  Q    E
|-17-15-----------------------|------------------------------|
|-------19-17-15-17-(17)------|--15---17---------------------|
|-----------------------------|------------16--14----14------|
|-----------------------------|-------------------17------16-|
|-----------------------------|------------------------------|
|-----------------------------|------------------------------|
|
|        ~~
|  E  E  H            Q          +E   +E   +E   Q     Q    E
|--------------------14b15====|=(14)-(14)r(14)-12----10---12-|
|-10h12--------------13b15====|=(13)-(13)r(13)-12----10---12-|
|-11h12-12-----------14b16====|=(14)-(14)r(14)-12----11---12-|
|-------14--------------------|------------------------------|
|-----------------------------|------------------------------|
|-----------------------------|------------------------------|


   E  E E E E E  E     E     E    E    E   E  E  E E  E
|------------------------|------------------------------|
|------------------------|------------------------------|
|-------0---0------------|---0--------------------------|
|-----2---2---2--------2-|--------2-----------0-------0-|
|----------------3-------|-----------------0-------0----|
|--0---------------------|-------------3---------2------|
|
|  W                        +Q    E    Q   Q  E
|------------------------|------------------------------|
|------------------------|------------------------------|
|------------------------|------------------------------|
|-16---------------------|-(16)--16---17--16-16---------|
|------------------------|------------------------------|
|------------------------|------------------------------|
|
|  ~~~
|  H.            Q          +E   +E   +E   Q     Q    E
|-12------------14b15====|=(14)-(14)r(14)-12----10---10-|
|-12------------13b15====|=(13)-(13)r(13)-12----10---10-|
|-12------------14b16====|=(14)-(14)r(14)-12----11---11-|
|------------------------|------------------------------|
|------------------------|------------------------------|
|------------------------|------------------------------|


   E  E  E E  E  E  E      E     E    E    E   E  E  E E  E
|----------------------------|------------------------------|
|----------------------------|--------------------0----3----|
|--------0----0--------------|---0-------------2-----2----2-|
|-----2----2-----2---------2-|--------0----4----------------|
|-------------------3--------|------------------------------|
|--0-------------------------|------------------------------|
|
|  E  E  H    S  S  S      S     Q   +S    S   S  S  H
|----------------------------|------------------------------|
|------------17-15--------15-|--17--(17)--15-----15-17------|
|------------------16--------|----------------16------------|
|-16-17-17-------------------|------------------------------|
|----------------------------|------------------------------|
|----------------------------|------------------------------|
|
|        ~~
|  E  E  H          Q           +E   +E   +E   Q     Q    E
|-10h12-12---------14b15=====|=(14)-(14)r(14)-12----10---12-|
|-10h12-12---------13b15=====|=(13)-(13)r(13)-12----10---12-|
|-11h12-12---------14b16=====|=(14)-(14)r(14)-12----11---12-|
|----------------------------|------------------------------|
|----------------------------|------------------------------|
|----------------------------|------------------------------|


   E   E  E  E  E  E   E     E     E    E    E    E  E  E  E  E
|------------------------------|----------------------------------|
|------------------------------|----------------------------------|
|---------0-----0--------------|---0------------------------------|
|------2-----2-----2---------2-|--------2------------0--------0---|
|----------------------3-------|------------------0--------0------|
|--0---------------------------|-------------3----------2---------|
|
|  E   E  E  E  E  E  +Q          +H             +E     E  E  E
|------------------------------|----------------------------------|
|-17--15-----------------------|--------------------------17-15---|
|--------16-14----14-(14)------|-(14)-----------(14)---16---------|
|--------------17--------------|----------------------------------|
|------------------------------|----------------------------------|
|------------------------------|----------------------------------|
|
|  ~~~
|  H.                  Q          +E   +E   +E    Q     Q     E
|-12------------------14b15====|=(14)-(14)r(14)--12----10----10---|
|-12------------------13b15====|=(13)-(13)r(13)--12----10----10---|
|-12------------------14b16====|=(14)-(14)r(14)--12----11----11---|
|------------------------------|----------------------------------|
|------------------------------|----------------------------------|
|------------------------------|----------------------------------|


   E  E  E  E  E  E  E     E     E    E    E   E  E  E  E  E
|----------------------------|-------------------------------|
|----------------------------|--------------------0-----3----|
|--------0-----0-------------|---0-------------2-----2-----2-|
|-----2-----2-----2--------2-|--------0----4-----------------|
|--------------------3-------|-------------------------------|
|--0-------------------------|-------------------------------|
|
|  Q  E  E  E  E  E  E           E    E    E   E  E  E  E  E
|-------------14-15-17-------|--19---17---19--20-19-17-15-14-|
|-17----15-17----------------|-------------------------------|
|----16----------------------|-------------------------------|
|----------------------------|-------------------------------|
|----------------------------|-------------------------------|
|----------------------------|-------------------------------|
|
|        ~~
|  E  E  H           Q          +E   +E   +E   Q     Q     E
|-10s12-19----------14b15====|=(14)-(14)r(14)-12----10----12-|
|-10h12-------------13b15====|=(13)-(13)r(13)-12----10----12-|
|-11h12-12----------14b16====|=(14)-(14)r(14)-12----11----12-|
|-------14-------------------|-------------------------------|
|----------------------------|-------------------------------|
|----------------------------|-------------------------------|


   E   E  E  E  E  E  E     E     E    E    E   E E  E  E  E
|-----------------------------|------------------------------|
|-----------------------------|------------------------------|
|---------0-----0-------------|---0--------------------------|
|------2-----2-----2--------2-|--------2----------0--------0-|
|---------------------3-------|-----------------0-------0----|
|--0--------------------------|-------------3--------2-------|
|
|  E   E  E  E  Q  E  E          +E    E   +Q        E  Q  E
|-15--14----------------------|------------------------------|
|--------17-15-17-15----------|------------------------------|
|--------------------16-------|-(16)--14--(14)---------------|
|-----------------------------|---------------------17-16-16-|
|-----------------------------|------------------------------|
|-----------------------------|------------------------------|
|
|  ~~~
|  H.                 Q          +E   +E   +E   Q    Q     E
|-12-----------------14b15====|=(14)-(14)r(14)-12---10----10-|
|-12-----------------13b15====|=(13)-(13)r(13)-12---10----10-|
|-12-----------------14b16====|=(14)-(14)r(14)-12---11----11-|
|-----------------------------|------------------------------|
|-----------------------------|------------------------------|
|-----------------------------|------------------------------|


   E  E  E E E E  E      E     E    E    E   E E  E E  E
|--------------------------|-----------------------------|
|--------------------------|-------------------0----3----|
|--------0---0-------------|---0-------------2----2----2-|
|-----2----2---2---------2-|--------0----4---------------|
|-----------------3--------|-----------------------------|
|--0-----------------------|-----------------------------|
|
|  E  E  H        E      E     Q    E    E   H
|--------------------------|-----------------------------|
|--------------------------|-----------------------------|
|--------------------------|-----------------------------|
|-16-14-14-------12-----14-|--14---12---14--14-----------|
|--------------------------|-----------------------------|
|--------------------------|-----------------------------|
|
|        ~~
|  E  E  H        Q           +E   +E   +E   Q    Q    E
|-10h12-12-------14b15=====|=(14)-(14)r(14)-12---10---12-|
|-10h12-12-------13b15=====|=(13)-(13)r(13)-12---10---12-|
|-11h12-12-------14b16=====|=(14)-(14)r(14)-12---11---12-|
|--------------------------|-----------------------------|
|--------------------------|-----------------------------|
|--------------------------|-----------------------------|


    E   E  E  E  E  E  E     E     E    E    E   E  E  E  E  E
|------------------------------|-------------------------------|
|------------------------------|-------------------------------|
|----------0-----0-------------|---0---------------------------|
|-------2-----2-----2--------2-|--------2-----------0--------0-|
|----------------------3-------|-----------------0--------0----|
|---0--------------------------|-------------3---------2-------|
|
|  +Q   E  E  E  E  E  E           E    E    E   E  E  E  E  E
|------------------------------|-------------------------------|
|------------------------------|----------------------------15-|
|------------------------------|------------14--16-17-16-17----|
|-(14)----------14-16-17-------|--16---17----------------------|
|------14-15-17----------------|-------------------------------|
|------------------------------|-------------------------------|
|
|   ~~~~
|   H.                 Q          +E   +E   +E   Q     Q     E
|--12-----------------14b15====|=(14)-(14)r(14)-12----10----10-|
|--12-----------------13b15====|=(13)-(13)r(13)-12----10----10-|
|--12-----------------14b16====|=(14)-(14)r(14)-12----11----11-|
|------------------------------|-------------------------------|
|------------------------------|-------------------------------|
|------------------------------|-------------------------------|


   E  E  E E  E  E  E      E     E    E    E   E  E  E E  E
|----------------------------|------------------------------|
|----------------------------|--------------------0----3----|
|--------0----0--------------|---0-------------2-----2----2-|
|-----2----2-----2---------2-|--------0----4----------------|
|-------------------3--------|------------------------------|
|--0-------------------------|------------------------------|
|
|  Q     Q    E  E  E      E     E    E    Q   Q  Q
|------------14-15-17-----15-|--17---19---17--19-20---------|
|-17----15-------------------|------------------------------|
|----------------------------|------------------------------|
|----------------------------|------------------------------|
|----------------------------|------------------------------|
|----------------------------|------------------------------|
|
|        ~~
|  E  E  H          Q           +E   +E   +E   Q     Q    E
|-10s12-19---------14b15=====|=(14)-(14)r(14)-12----10---12-|
|-10h12------------13b15=====|=(13)-(13)r(13)-12----10---12-|
|-11h12-12---------14b16=====|=(14)-(14)r(14)-12----11---12-|
|-------14-------------------|------------------------------|
|----------------------------|------------------------------|
|----------------------------|------------------------------|


   E   E  E  E  E  E  E      E     E    E    E   E  E  E  E  E
|------------------------------|-------------------------------|
|------------------------------|-------------------------------|
|---------0-----0--------------|---0---------------------------|
|------2-----2-----2---------2-|--------2-----------0--------0-|
|---------------------3--------|-----------------0--------0----|
|--0---------------------------|-------------3---------2-------|
|
|  E   E  E  E  E  E  E      E     E    E    E   E  E  E  E  E
|-19--17-15--------------------|-------------------------------|
|-----------19-17-15-17-----15-|-------15---17--15-------------|
|------------------------------|--16---------------16-14-------|
|------------------------------|-------------------------17-16-|
|------------------------------|-------------------------------|
|------------------------------|-------------------------------|
|
|  ~~~
|  H.                 Q           +E   +E   +E   Q     Q     E
|-12-----------------14b15=====|=(14)-(14)r(14)-12----10----10-|
|-12-----------------13b15=====|=(13)-(13)r(13)-12----10----10-|
|-12-----------------14b16=====|=(14)-(14)r(14)-12----11----11-|
|------------------------------|-------------------------------|
|------------------------------|-------------------------------|
|------------------------------|-------------------------------|


   E  E  E E E E  E      E     E    E    E   E  E  E E  E
|--------------------------|------------------------------|
|--------------------------|--------------------0----3----|
|--------0---0-------------|---0-------------2-----2----2-|
|-----2----2---2---------2-|--------0----4----------------|
|-----------------3--------|------------------------------|
|--0-----------------------|------------------------------|
|
|  E  E  H        E      E     E    E    E   E  H
|--------------------------|------------------------------|
|--------------------------|------------17--15------------|
|--------------------------|--14---16----------16---------|
|-17-16-16-------16-----17-|------------------------------|
|--------------------------|------------------------------|
|--------------------------|------------------------------|
|
|        ~~
|  E  E  H        Q           +E   +E   +E   Q     Q    E
|-10h12-12-------14b15=====|=(14)-(14)r(14)-12----10---12-|
|-10h12-12-------13b15=====|=(13)-(13)r(13)-12----10---12-|
|-11h12-12-------14b16=====|=(14)-(14)r(14)-12----11---12-|
|--------------------------|------------------------------|
|--------------------------|------------------------------|
|--------------------------|------------------------------|


   E  E E E E E  E     E     E    E    E   E E  E  E  E
|------------------------|------------------------------|
|------------------------|------------------------------|
|-------0---0------------|---0--------------------------|
|-----2---2---2--------2-|--------2----------0--------0-|
|----------------3-------|-----------------0-------0----|
|--0---------------------|-------------3--------2-------|
|
|  W                        +Q    H                E  E
|------------------------|------------------------------|
|------------------------|-------17---------------15-17-|
|------------------------|------------------------------|
|-16---------------------|-(16)-------------------------|
|------------------------|------------------------------|
|------------------------|------------------------------|
|
|  ~~~
|  H.            Q          +E   +E   +E   Q    Q     E
|-12------------14b15====|=(14)-(14)r(14)-12---10----10-|
|-12------------13b15====|=(13)-(13)r(13)-12---10----10-|
|-12------------14b16====|=(14)-(14)r(14)-12---11----11-|
|------------------------|------------------------------|
|------------------------|------------------------------|
|------------------------|------------------------------|


   E  E  E  E  E  E  E     E     E    E    E   E E  E E  E
|----------------------------|-----------------------------|
|----------------------------|-------------------0----3----|
|--------0-----0-------------|---0-------------2----2----2-|
|-----2-----2-----2--------2-|--------0----4---------------|
|--------------------3-------|-----------------------------|
|--0-------------------------|-----------------------------|
|
|  Q  E  E  E  E  E  E           W
|-------------15-------------|-----------------------------|
|-17-15-17-19----19-15-------|--17-------------------------|
|----------------------------|-----------------------------|
|----------------------------|-----------------------------|
|----------------------------|-----------------------------|
|----------------------------|-----------------------------|
|
|        ~~
|  E  E  H           Q          +E   +E   +E   Q    Q    E
|-10s12-19----------14b15====|=(14)-(14)r(14)-12---10---12-|
|-10h12-------------13b15====|=(13)-(13)r(13)-12---10---12-|
|-11h12-12----------14b16====|=(14)-(14)r(14)-12---11---12-|
|-------14-------------------|-----------------------------|
|----------------------------|-----------------------------|
|----------------------------|-----------------------------|


   E   E  E  E  E  E  E     E     E    E    E   E E  E E  E
|-----------------------------|-------------------------------|
|-----------------------------|-------------------------------|
|---------0-----0-------------|---0---------------------------|
|------2-----2-----2--------2-|--------2----------0-------0---|
|---------------------3-------|-----------------0------0------|
|--0--------------------------|-------------3--------2--------|
|
|  E   E  E  E  E  E  Q           E    E    E   E    Q    Q
|-----------------------------|-------------------------------|
|-17--15----------------------|-------------------------------|
|--------16-14----14----------|-------------------------------|
|--------------17----17-------|--16---17---16--17---14---12---|
|-----------------------------|-------------------------------|
|-----------------------------|-------------------------------|
|
|  ~~~
|  H.                 Q          +E   +E   +E   Q    Q    E
|-12-----------------14b15====|=(14)-(14)r(14)-12---10---10---|
|-12-----------------13b15====|=(13)-(13)r(13)-12---10---10---|
|-12-----------------14b16====|=(14)-(14)r(14)-12---11---11---|
|-----------------------------|-------------------------------|
|-----------------------------|-------------------------------|
|-----------------------------|-------------------------------|


   E  E  E  E E E E E
|------------------------*|
|------------------------*|
|--------0----0----------*|
|-----2-----2---2---2----*|
|-----------------3------*|
|--0---------------------*|
|
|        ~~~
|  E  E  H.
|-10s12-19---------------*|
|-10h12------------------*|
|-11h12-12---------------*|
|-------14---------------*|
|------------------------*|
|------------------------*|
|
|  W
|------------------------*|
|------------------------*|
|------------------------*|
|-14---------------------*|
|------------------------*|
|------------------------*|



Duration Legend
---------------
W - whole; H - half; Q - quarter; E - 8th; S - 16th; T - 32nd; X - 64th; a - acciaccatura
+ - note tied to previous; . - note dotted; .. - note double dotted
Uncapitalized letters represent notes that are staccato (1/2 duration)
Irregular groupings are notated above the duration line
Duration letters will always appear directly above the note/fret number it represents the
duration for.  Duration letters with no fret number below them represent rests.  Multi-
bar rests are notated in the form Wxn, where n is the number of bars to rest for.  Low
melody durations appear below the staff

Tablature Legend
----------------
 h   - hammer-on
 p   - pull-off
 b   - bend
 pb  - pre-bend
 r   - bend release (if no number after the r, then release immediately)
 /\  - slide into or out of (from/to "nowhere")
 s   - legato slide
 S   - shift slide
 - natural harmonic
[n]  - artificial harmonic
n(n) - tapped harmonic
 ~   - vibrato
 tr  - trill
 T   - tap
 TP  - trem. picking
 PM  - palm muting
\n/  - tremolo bar dip; n = amount to dip
 \n  - tremolo bar down
 n/  - tremolo bar up
/n\  - tremolo bar inverted dip
 =   - hold bend; also acts as connecting device for hammers/pulls
 <> - volume swell (louder/softer)
 x   - on rhythm slash represents muted slash
 o   - on rhythm slash represents single note slash

Misc Legend
-----------
 |  - bar
||  - double bar
||o - repeat start
o|| - repeat end
*|  - double bar (ending)
 :  - bar (freetime)
 $  - Segno
 &  - Coda
Tempo markers -  = BPM(8/16=s8/s16), where s8 = swing 8ths, s16 = swing 16ths

Добавлено: 29.02.2012
Другие материалы по этой песне:

Страница создана 29.02.2012
http://primanota.ru/believer/dimentia-chords.htm
Привет, Гость.
Предлагаем пройти революционный курс по гитаре.
Подарок от PrimaNota.Ru, забирай!