PrimaNota.ru - самый крупный в мире бесплатный архив песенных текстов, аккордов, табулатур и нот


Believe - You And Me - аккорды и текст, видео

Регистрация Запомнить меня
Войти через:  Facebook Google Twitter Vk Yandex Mail.ru

Believe - You And Me - аккорды и текст, видео

Печатать
Просмотров: 68
You And Me
Believe
-----------------------------------------------------------------------------
                                          Artist - Believe
                                         ******************
                                         Song - You And Me 
                                        *******************
                                   Album - Yesterday Is A Friend   
                                  *******************************
                                        Tabbed By - Ayreon77
                                       **********************
-----------------------------------------------------------------------------
Tuning = Standard


INTRO
******
 Acoustic Picking
  Gm        Fmaj       Gm         Fmaj      Gm        F          Am        Dm
e|-------3-|-------0-|-------5-3-|-------0-|-------3-|-------0-|-------5-|-------5-|
B|---------|-----1---|-----------|-----1---|---------|-----1---|-----5---|-----5---|
G|-----3---|---2-----|-----3-----|---2-----|-----3---|---2-----|---5-----|---7-----|
D|---5-----|-3-------|---5-------|-3-------|---5-----|-3-------|-7-------|-7-------|
A|-5-------|---------|-5---------|---------|-5-------|---------|---------|---------|
E|---------|---------|-----------|---------|---------|---------|---------|---------|


--------------------------------------
VERSE 1
********
Dm         F     Dm        F
  What you need,   Tell me now
Dm        F            Am
  A magic feeling will never die
Dm     F      Dm            F
  I am yours,   And you are mine
Dm       F         Am
  Like a child you smile to the sky's
    C     
You smile

--------------------------------------
CHORUS
*******
Dm       Am     Dm      Am
  Flower feels,   Crazy dreams
Dm     Am        F
  Open roads for you
Dm        Am     Dm        Am
  Sunless sky's,   Rolling waves
Dm        Am      F
  Make it wet for you

--------------------------------------
VERSE 2
********
Dm     F     Dm         F
  Many fall,   Don't be afraid
Dm       F      Am             
  Try to stand, sunrise your hand
Dm     F      Dm            F
  I am yours,   And you are mine
Dm         F            Am
  When you need me just cry out loud

Just cry

--------------------------------------
CHORUS
*******
Dm       Am     Dm      Am
  Flower feels,   Crazy dreams
Dm     Am        F
  Open roads for you
Dm        Am     Dm        Am
  Sunless sky's,   Rolling waves
Dm        Am      F
  Make it wet for you
--------------------------------------
02:33
ACOUSTIC SOLO - Same picking sort of as intro just follow the chords for the picking pattern
**************
  Gm               Fmaj       Gm               Am     Dm      Gm                       Fmaj
e|----------------|-10-------|----------------|------|-------|-----------------------|
B|-10-------11-13-|----13-11-|-10-------11-13-|------|-------|-10--------11-------13-|
G|----10----------|----------|----10----------|-9----|-10----|----10--------12-------|
D|-------12-------|----------|-------12-------|---10-|----12-|-------12--------12----|
A|----------------|----------|----------------|------|-------|-----------------------|
E|----------------|----------|----------------|------|-------|-----------------------|
 
  Gm                      Fmaj       Gm                 Fmaj  Am     Dm      Am     Dm
e|-----------------------|-10-------|------------------------|------|-------|------|-------|
B|-10--------11-------13-|----13-11-|-10--------11--------13-|------|-------|------|-------|
G|----10--------12-------|----------|----10--------12--------|-9----|-10----|-9----|-10----|
D|-------12--------12----|----------|-------12--------12-----|---10-|----12-|---10-|----12-|
A|-----------------------|----------|------------------------|------|-------|------|-------|
E|-----------------------|----------|------------------------|------|-------|------|-------|


--------------------------------------
03:09
ELECTRIC SOLO
**************
e|---------10----------------|---------10----------------|---------10----------------|
B|------10--------s----s-----|------10---------10--11-13-|------10--------s----s-----|
G|--s---------12--\-10-\12-9-|--s---------12-------------|--s---------12--\-10-\12-9-|
D|-8\12----------------------|-8\12----------------------|-8\12----------------------|
A|---------------------------|---------------------------|---------------------------|
E|---------------------------|---------------------------|---------------------------|

                                                            s
e|---------10----------------|-10-10-10--12-12-12--13-13-13-\-|-10-10-10--12-12-12-----------|
B|------10---------10--11-13-|--------------------------------|---------------------13-13-13-|
G|--s---------12-------------|--------------------------------|------------------------------|
D|-8\12----------------------|--------------------------------|------------------------------|
A|---------------------------|--------------------------------|------------------------------|
E|---------------------------|--------------------------------|------------------------------|

                                          s               s
e|-10-10-10--12-12-12--13-13-13-15--15--15\17-13--12-13-12\10-10-|
B|---------------------------------------------------------------|
G|---------------------------------------------------------------|
D|---------------------------------------------------------------|
A|---------------------------------------------------------------|
E|---------------------------------------------------------------|


--------------------------------------
03:57
VIOLIN
*******

--------------------------------------
CHORUS
*******
Dm       Am     Dm      Am
  Flower feels,   Crazy dreams
Dm     Am        F
  Open roads for you
Dm        Am     Dm        Am
  Sunless sky's,   Rolling waves
Dm        Am      F
  Make it wet for you



ENJOY..........
Добавлено: 23.06.2015
Другие материалы по этой песне:
  • Аккорды и текст

Страница создана 23.06.2015
http://primanota.ru/believe/you-and-me-chords.htm
Привет, Гость.
Предлагаем пройти революционный курс по гитаре.
Подарок от PrimaNota.Ru, забирай!