PrimaNota.ru - самый крупный в мире бесплатный архив песенных текстов, аккордов, табулатур и нот


Believe - Pain - аккорды и текст, видео

Регистрация Запомнить меня
Войти через:  Facebook Google Twitter Vk Yandex Mail.ru

Believe - Pain - аккорды и текст, видео

Печатать
Просмотров: 45
Pain
Believe
---------------------------------------------------------------------------------------------------
                                          Artist - Believe
                                         ******************
                                            Song - Pain
                                           *************
                                Album - Hope To See Another Day (2006)   
                               ****************************************
                                        Tabbed By - Ayreon77
                                       **********************
---------------------------------------------------------------------------------------------------
Tuning = Standard


INTRO
****** 
RIFF 1    F                    Em
e|--------0---s----------------0--|
B|--------0--1\3-1----s--------0--|
G|--------2--------2-2\4-------0--|
D|-0-2-3--3--------------2-2---2--|
A|--------3--------------------2--|
E|--------0------------------0-0--|



------------------------------------
RIFF 2
Play this with the verse Below
   F                                Em
e|---------------------------------|-----------------------------------|
B|-----0-------0-------0-------0---|---0---0---0---0---0---0---0---0---|
G|---5---5---5---5---5---5---5---5-|-----0-------0-------0-------0-----|
D|-3-------3-------3-------3-------|-2-------2-------2-------2-------2-|
A|---------------------------------|-----------------------------------|
E|---------------------------------|-----------------------------------|


----------------------------
VERSE 1
********
Em              F
I'll tell you a story
               Em
About an empty hollow town
          F
Where the river of fire
             Em
Flows to the empty sky
Em            F
I'll tell you everything
          Em
In detail all I see
      F
Every rape every death
              Em
Lasts forever so it seems


----------------------------
CHORUS
*******
Em
Pain...
                 Bm
Can't sleep with all I have in mind
   C                                    Bm
Outside a warm summer breeze (Ahhh) why don't you get a beer
Em
Pain...
                 Bm
Can't sleep I'll tell you what I fear
         C
The city burns, it burns me out
     Bm
As I fall from the empty sky


----------------------------
VERSE 2 - RIFF 2
********
                  F
I will tell you a story
          Em
While you open the wine
         F
River of blood flows
         Em
Drowning all alive
             F
Drowning the raped and the burns
             Em
Drowning the cats the birds the dogs
          F
Heaven is cold God is asleep
                Em
I will tell you what I fear


----------------------------
CHORUS
*******
Em
Pain...
                 Bm
Can't sleep with all I have in mind
   C                                    Bm
Outside a warm summer breeze (Ahhh) why don't you get a beer
Em
Pain...
                 Bm
Can't sleep I'll tell you what I fear
         C
The city burns, it burns me out
     Bm
As I fall from the empty sky


Em


----------------------------
02:48
SOLO - F Em X4    C Bm X4
*****                                            h
e|--b-r-------h----------|---s----------------|-7-8-7-~~~~-|--------------|--------------|
B|-10---10---7-10-7-~~~~-|-8-\--------s-------|------------|---7---8---10-|---7---8---12-|
G|-----------------------|-----5--7--7\9--7---|------------|--------------|--------------|
D|-----------------------|------------------9-|------------|-9---9---9----|-9---9---9----|
A|-----------------------|--------------------|------------|--------------|--------------|
E|-----------------------|--------------------|------------|--------------|--------------|

03:14         h
e|-------14-14-15--14-|--------b--r------|-s--------------------------------|-s--------------------------------|
B|-15-17--------------|-15-17-17----17-~~|-\15-15-15-15--15-15-15--13-15-12-|-\15-15-15-15--15-15-15--13-15-12-|
G|--------------------|------------------|----------------------------------|----------------------------------|
D|--------------------|------------------|----------------------------------|----------------------------------|
A|--------------------|------------------|----------------------------------|----------------------------------|
E|--------------------|------------------|----------------------------------|----------------------------------|

                                                 Trill...............
e|-s------------|-s------------|-s-----------------h--p--h--p--h--p--h--p--h--p--h--p----|
B|-\17-17-17-12-|-\17-17-17-12-|-\17~~~15-13-12--12-13-12-13-12-13-12-13-12-13-12-13-12--|
G|--------------|--------------|---------------------------------------------------------|
D|--------------|--------------|---------------------------------------------------------|
A|--------------|--------------|---------------------------------------------------------|
E|--------------|--------------|---------------------------------------------------------|

03:40
e|-s--------------------------------|-s--------------------------------|-s------------|-s------------|
B|-\15-15-15-15--15-15-15--13-15-12-|-\15-15-15-15--15-15-15--13-15-12-|-\17-17-17-12-|-\17-17-17-12-|
G|----------------------------------|----------------------------------|--------------|--------------|
D|----------------------------------|----------------------------------|--------------|--------------|
A|----------------------------------|----------------------------------|--------------|--------------|
E|----------------------------------|----------------------------------|--------------|--------------|

                   Trill...............  
e|-s-----------------h--p--h--p--h--p--h--p--h--p--h--p----|
B|-\17~~~15-13-12--12-13-12-13-12-13-12-13-12-13-12-13-12--|
G|---------------------------------------------------------|
D|---------------------------------------------------------|
A|---------------------------------------------------------|
E|---------------------------------------------------------|


----------------------------
CHORUS
*******
Em
Pain...
                 Bm
Can't sleep with all I have in mind
       C                                    
Let me tell you what I need
  Bm
A smile is all I need
Em
Pain...
                Bm
Can't sleep you pour me another glass
  C
A glass of wine to a stranger
Bm
  You have no fear

C    Bm
  Welcome
        C                    Bm
You are welcome, welcome, welcome,
        C                    Bm
You are welcome, welcome, welcome,
        C                    Bm
You are welcome, welcome, welcome,




ENJOY.......
Добавлено: 19.09.2015
Другие материалы по этой песне:
  • Аккорды и текст

Страница создана 19.09.2015
http://primanota.ru/believe/pain-chords.htm
Привет, Гость.
Предлагаем пройти революционный курс по гитаре.
Подарок от PrimaNota.Ru, забирай!