PrimaNota.ru - самый крупный в мире бесплатный архив песенных текстов, аккордов, табулатур и нот


Believe - Mother - аккорды и текст, видео

Регистрация Запомнить меня
Войти через:  Facebook Google Twitter Vk Yandex Mail.ru

Believe - Mother - аккорды и текст, видео

Печатать
Просмотров: 54
Mother
Believe
-----------------------------------------------------------------------------
                                          Artist - Believe
                                         ******************
                                           Song - Mother 
                                          ***************
                                     Album - This Bread Is Mine 
                                    ***************************
                                        Tabbed By - Ayreon77
                                       **********************
-----------------------------------------------------------------------------
Tuning = Standard


Not 100% on the chords.


INTRO - Am G F X3
******
RIFF 1
*******   s
e|-8-7-8-8\19-|-8-7-8-8-|-8-7-5-5-|
B|------------|---------|---------|
G|------------|---------|---------|
D|------------|---------|---------|
A|------------|---------|---------|
E|------------|---------|---------|X4


-----------------------------
VERSE 1
********
       Am          G    F          F G
When I make the mistake of my life
         Am              G        F  G F
Will you stand, will you stand by me
       Am          G    F
When I make the mistake of my life
      Am          G
All I see you not here
Am
Here i'm waiting
Am     C       Am
Here I wake in pain

-----------------------------
RIFF 1 - X2
*******

-----------------------------
VERSE 2
********
      Am          G       F              F G
All I want is too be your dearest friend
      Am      G      F      F G
All I am is a losers dream
       Am          G          F
Can we meet you so strong you have no fear
          Am             G
Can't you see, Can't you see
Am
Here i'm waiting
Am
Here i'm wake in 
C              Am
Here I wake in pain


-----------------------------
Play this picking with CHORUS below
02:03
e|-------12-|-----7-|   |---------------|    e|-------12-|-----7-|   |---------------|
B|----13----|---8---|   |-----------1---|    B|----13----|---8---|   |-----------1---|
G|-14-------|-9-----|   |-----2-0-----0-|    G|-14-------|-9-----|   |-----2-0-----0-|
D|----------|-------|   |---2-----------|    D|----------|-------|   |---2-----------|
A|----------|-------|   |-0-------------|    A|----------|-------|   |-0-------------|
E|----------|-------|X4 |---------------|    E|----------|-------|X3 |---------------|

CHORUS
*******
Am                 Em
Loving me cross to bare
Am               Em
Be in me wonders care
Am               Em
Trust in me your mistake
C
Again
Am                    Em
Need A drink help yourself
Am                    Em
Break in tears if you can
   Am                Em
Oh bare with me dear mum
Am
Again
Am                 Em
Loving me cross to bare
Am                Em
Be in me just not fair
   Am               Em
Oh trust in me your mistake
F
Again, Again.................


-----------------------------
02:56
SOLO - Am Em Am Em Am Em F X2
*****
e|------------------------------------|-------------------------------|
B|--------------------------s-------s-|-------------------------------|
G|-4-5-4-5-4-5-4-5-4-5-4-5-5\7-~~~~~\-|-4-5-4-5-4-5-4-5-4-5-----s-----|
D|------------------------------------|---------------------5--5\7----|
A|------------------------------------|-----------------------------5-|
E|------------------------------------|-------------------------------|

                                                                                                          s
e|--------------------------------------|----------------------------------------------s------8-10-10-10\12-~~|
B|----------------------s---s---------s-|---------------------------------------5-6-8-8\10-12-----------------|
G|-4-5-4-5-4-5-4-5-4-5-5\7-7\9-10-9-~~\-|-4-5-4-5-4-5-4-5-4-5-------4-----4-5-7-------------------------------|
D|--------------------------------------|-----------------------5-7---5-7-------------------------------------|
A|--------------------------------------|---------------------7-----------------------------------------------|
E|--------------------------------------|---------------------------------------------------------------------|


-----------------------------
VIOLIN - Am G F 
*******
-----------------------------
Play with chorus below
          
e|----------15---------|   |-------------12-13-15-17-|
B|-13-12-13------12-13-|   |-10-12-13-15-------------|
G|---------------------|   |-------------------------|
D|---------------------|   |-------------------------|
A|---------------------|   |-------------------------|
E|---------------------|X3 |-------------------------|

CHORUS
*******
   Am               Em
Oh bare with me any how
Am                  Em
Be my friend, be my guide
   Am              Am
Oh carry you every where
F
Inside my head

Am

Bare with me dear mum, won't you please show up now.



ENJOY..........

Добавлено: 19.09.2015
Другие материалы по этой песне:
  • Аккорды и текст

Страница создана 19.09.2015
http://primanota.ru/believe/mother-chords.htm
Привет, Гость.
Предлагаем пройти революционный курс по гитаре.
Подарок от PrimaNota.Ru, забирай!