PrimaNota.ru - самый крупный в мире бесплатный архив песенных текстов, аккордов, табулатур и нот


Believe - The End - аккорды и текст, видео

Регистрация Запомнить меня
Войти через:  Facebook Google Twitter Vk Yandex Mail.ru

Believe - The End - аккорды и текст, видео

Печатать
Просмотров: 38
The End
Believe
---------------------------------------------------------------------------------------------------
                                          Artist - Believe
                                         ******************
                                            Song - The End
                                           ****************
                                   Album - The Warmest Sun In Winter  
                                  ***********************************
                                         Tabbed By - Ayreon77
                                        **********************
---------------------------------------------------------------------------------------------------
Tuning = Standard                           INSTRUMENTAL
                                            ************



This A Short Song.


Clean Electric Guitar
This plays continuously through the song.
e|-----7-|  |-16--12-14-12-|
B|-9-----|  |--------------|
G|---9---|  |--------------|
D|-------|  |--------------|
A|-------|  |--------------|
E|-------|  |--------------|


00:16
Heavier Guitar
e|--------s--|--------s------|
B|--s--7-7\9-|--s--7-7\9--s--|
G|-7\9-------|-7\9-------9\6-|
D|-----------|---------------|
A|-----------|---------------|
E|-----------|---------------|X2


00:38         s                s
e|---s---14-14\16-|---s---14-14\16---s----|
B|-14\17----------|-14\17----------17\14--|
G|----------------|-----------------------|
D|----------------|-----------------------|
A|----------------|-----------------------|
E|----------------|-----------------------|X4


01:16
VOLUME GUITAR
e|----14-16-----14-16-------|
B|-17--------17-------17-14-|
G|--------------------------|
D|--------------------------|
A|--------------------------|
E|--------------------------|X2



ENJOY........
Добавлено: 19.09.2015
Вам также может быть интересно:
Другие материалы по этой песне:
  • Аккорды и текст

Страница создана 19.09.2015
http://primanota.ru/believe/end-chords.htm
Привет, Гость.
Предлагаем пройти революционный курс по гитаре.
Подарок от PrimaNota.Ru, забирай!