PrimaNota.ru - самый крупный в мире бесплатный архив песенных текстов, аккордов, табулатур и нот


Belasco - Swallow - текст песни, таба, видео

Регистрация Запомнить меня
Войти через:  Facebook Google Twitter Vk Yandex Mail.ru

Belasco - Swallow - текст песни, таба, видео

Печатать
Просмотров: 228
Уроки эстрадного вокала в Санкт-Петербурге
Great song by one of my favorite bands. Look up the band Belasco I guarantee you'll love them.

Swallow by Belasco


Intro and Verse 1
e---------------------7----7/5-----------|
B-----10------10-------------------------|
G----------------------------------------|
D---11--11--11--11---9-9--9--------------|
A--9-------9-----------------------------|
E-------------------7----7---------------|

...You can swallow...
e---------------------7-----7------------|
B----------------------------------------|
G----10------10--------------------------|
D--------------------9-9---9-9-----------|  x2
A--11--11--11--11------------------------|
E-9-------9--------7-----7---------------|

e---------------------------------------------------------------|
B---------------------------------------------------------------|
G----------------777-77-777-777----------------777-77-777-777---|
D-444-44-444-444-777-77-777-777-444-44-444-444-777-77-777-777---|
A-444-44-444-442-555-55-555-555-444-44-444-444-555-55-555-555---|
E-222-22-222-222----------------222-22-222-222------------------|

e-------------------------------------------------|
B-------------------------------------------------|
G-999-99-999-999----------------------------------|
D-999-99-999-999-7777-6666------------------------|
A-777-77-777-777-7777-6666------------------------|
E----------------5555-4444------------------------|

Verse 2
e------------------77777777------------|
B-1010101010101010-77777777------------|
G-1111111111111111---------------------|
D-1111111111111111-99999999------------| x4
A-9 9 9 9 9 9 9 9--99999999------------|
E------------------77777777------------|

...You can swallow...  (Palm Muted)
e---------------------------------|
B---------------------------------|
G----------------777-77-777-777---| x2
D-444-44-444-444-777-77-777-777---|
A-444-44-444-444-555-55-555-555---|
E-222-22-222-222------------------|

e---------------------------------------------------------------|
B---------------------------------------------------------------|
G----------------777-77-777-777----------------777-77-777-777---|
D-444-44-444-444-777-77-777-777-444-44-444-444-777-77-777-777---|
A-444-44-444-442-555-55-555-555-444-44-444-444-555-55-555-555---|
E-222-22-222-222----------------222-22-222-222------------------|

e-------------------------------------------------|
B-------------------------------------------------|
G-999-99-999-999----------------------------------|
D-999-99-999-999-7777-6666------------------------|
A-777-77-777-777-7777-6666------------------------|
E----------------5555-4444------------------------|

Bridge
e--------------------------------------------------------------|
B--------------------------------------------------------------|
G-77777777-99999999--------------------77777777-99999999-------|
D-77777777-99999999-7777-6666-44444444-77777777-99999999-------|
A-55555555-77777777-7777-6666-44444444-55555555-77777777-------|
E-------------------5555-4444-22222222-------------------------|

e--------------|
B--------------|
G--------------|
D-7777-6666----|
A-7777-6666----|
E-5555-4444----|

Singing/Howling Part
e------------------------------------------|
B------------------------------------------|
G----------77777777-99999999---------------|
D-44444444-77777777-99999999-7777-6666-----| x2 then x4
A-44444444-55555555-77777777-7777-6666-----|
E-22222222-------------------5555-4444-----|

End on
e------|
B--10--|
G--11--|
D--11--|
A--9---|
E------|

Enjoy.
Добавлено: 09.11.2013
Вам также может быть интересно:
Другие материалы по этой песне:
  • Аккорды и текст

Страница создана 09.11.2013
http://primanota.ru/belasco/swallow-chords.htm
Привет, Гость.
Предлагаем пройти революционный курс по гитаре.
Подарок от PrimaNota.Ru, забирай!