PrimaNota.ru - самый крупный в мире бесплатный архив песенных текстов, аккордов, табулатур и нот


Belakor - Venator - текст песни, таба, видео

Регистрация Запомнить меня
Войти через:  Facebook Google Twitter Vk Yandex Mail.ru

Belakor - Venator - текст песни, таба, видео

Печатать
Просмотров: 195
-------------------------------------------------------------------------------
                            Be'lakor - Venator
-------------------------------------------------------------------------------
Tabbed by:Vertes

Tuning:Standard

Intro Solo

e|---------------------------------------------------------------------------|
B|---------------------------------------------------------------------------|
G|-9--7--9--10------12---10---9h10p9-----9h10p9-----5---5---5--7-------------|
D|---------------------------------------------------------------------------|
A|---------------------------------------------------------------------------|
E|---------------------------------------------------------------------------|

e|---------------------------------------------------------------------------|
B|-------5----5--6-----13-10h13p10-----13--10h13p10--------------------------|
G|-5--7-----7----------------------------------------------------------------|
D|---------------------------------------------------------------------------|
A|---------------------------------------------------------------------------|
E|---------------------------------------------------------------------------|

e|---------------------------------------------------------------------------|
B|-10--8--6--8--5----------------5--6--5--5h6p5------------------------------|
G|-----------------5--7----5--7--------------------5h7--9--7h9--10--12--10--9|
D|---------------------------------------------------------------------------|
A|---------------------------------------------------------------------------|
E|---------------------------------------------------------------------------|

e|---------------------------------------------------------------------------|
B|-13-10h13p10-----13-10h13p10----13-10h13p10----13-10h13p10-----13-10h13p10-|
G|---------------------------------------------------------------------------|
D|---------------------------------------------------------------------------|
A|---------------------------------------------------------------------------|
E|---------------------------------------------------------------------------|

e|---------------------------------------------------------------------------|
B|-13-10h13p10---------------------------------------------------------------|
G|---------------------------------------------------------------------------|
D|---------------------------------------------------------------------------|
A|---------------------------------------------------------------------------|
E|---------------------------------------------------------------------------|


0:59

e|---------------------------------------------------------------------------|
B|---------------------------------------------------------------------------|
G|---------------------------------------------------------------------------|
D|-----9-9-------------------------------------------------------------------|  
A|-------------10-10-----7-7-----7-7-----------------------------------------|
E|-0-0-----0-0-------0-0-----0-0---------------------------------------------|

1:06
Each note is tremolo picked
  
e|---------------------------------------------------------------------------|
B|---------------------------------------------------------------------------|
G|-7'-----9'-----10'---------------------------------------------------------|
D|---------------------------------------------------------------------------|
A|---------------------------------------------------------------------------|
E|---------------------------------------------------------------------------|

1:12

e|---------------------------------------------------------------------------|
B|---------------------------------------------------------------------------|
G|---------------------------------------------------------------------------|
D|-------9-9-----------------------------------------------------------------|
A|-----------------10-10-------7-7-------7~----------------------------------|
E|-0-0-0-----0-0-0-------0-0-0-----0-0-0-------------------------------------|

1:38

e|---------------------------------------------------------------------------|
B|---------------------------------------------------------------------------|
G|-12---14'----12'----15'----14'----12'----14'----12'----15'----14'----12'---|
D|---------------------------------------------------------------------------|
A|---------------------------------------------------------------------------|
E|---------------------------------------------------------------------------|


e|---------------------------------------------------------------------------|
B|---------------------------------------------------------------------------|
G|-14'----12'----15'----12'----14'-------------------------------------------|
D|---------------------------------------------------------------------------|
A|---------------------------------------------------------------------------|
E|---------------------------------------------------------------------------|

1:47

e|---------------------------------------------------------------------------|
B|-7-7---9-9-9-9--10-10-10-10--9-9-9-9---------------------------------------|
G|---------------------------------------------------------------------------|
D|---------------------------------------------------------------------------|
A|---------------------------------------------------------------------------|
E|---------------------------------------------------------------------------|

2:32

e|---------------------------------------------------------------------------|
B|-10--10--10--8--8p10---11--11--11--10--8--8h10-----------------------------|
G|------------------------------------------------7--7--7--9--9h10--7--------|
D|---------------------------------------------------------------------------|
A|---------------------------------------------------------------------------|
E|---------------------------------------------------------------------------|


e|----------------------------------------------------------------------------------|
B|------------------------10--10--10--8--8h10----11--11--11--10--8--10b--10--8--10--|
G|-7--7--7--9--9h10--12-------------------------------------------------------------|
D|----------------------------------------------------------------------------------|
A|----------------------------------------------------------------------------------|
E|----------------------------------------------------------------------------------|


e|---------------------------------------------------------------------------|
B|---------------------------------------------------------------------------|
G|-7--7--7--9--9h10--7-----7--7--7--9--9h10--12------------------------------|
D|---------------------------------------------------------------------------|
A|---------------------------------------------------------------------------|
E|---------------------------------------------------------------------------|

4:23

e|---------------------------------------------------------------------------------------------------|
B|---------------------------------------------------------------------------------------------------|
G|---------------------------------------------------------------------------------------------------|
D|--------------------------------------------------------------------------------9------------------|
A|-------7-9-10-------7-9-10-------7-9-10-------7-9-10-------10-9-------7-9----------10-------5-7----|
E|-0-0-0--------0-0-0--------0-0-0--------0-0-0--------8-8-8------7-7-7-----8-8-8-------5-5-5--------|

5:03
e|---------------------------------------------------------------------------|
B|---------------------------------------------------------------------------|
G|---------------------------------------------------------------------------|
D|-9-9-9-9-9-9-9-9-5-5-5-5-4---7-7-7-7-7-7-7-7-5-5-5-4-----------------------|
A|---------------------------5-----------------------------------------------|
E|---------------------------------------------------------------------------|


e|---------------------------------------------------------------------------|
B|---------------------------------------------------------------------------|
G|---------------------------------------------------------------------------|
D|-9-9-9-9-9-9-9-9-5-5-5-5-4---7-7-7-7-7-7-7-7-5-5-5-4-----------------------|
A|---------------------------5-------------------------5---------------------|
E|---------------------------------------------------------------------------|




************************************

| /   slide up
| \   slide down
| h   hammer-on
| p   pull-off
| ~   vibrato
| +   harmonic
| x   Mute note
| b   Bend
| pb  Pre-bend
| br  Bend release
| pbr Pre-bend release
| brb Bend release bend
| '   Tremolo picking

************************************
Добавлено: 17.11.2015
Другие материалы по этой песне:
  • Аккорды и текст

Страница создана 19.12.2013
http://primanota.ru/belakor/venator-chords.htm
Привет, Гость.
Предлагаем пройти революционный курс по гитаре.
Подарок от PrimaNota.Ru, забирай!