PrimaNota.ru - самый крупный в мире бесплатный архив песенных текстов, аккордов, табулатур и нот


Belakor - Husks - таба, видео

Регистрация Запомнить меня
Войти через:  Facebook Google Twitter Vk Yandex Mail.ru

Belakor - Husks - таба, видео

Печатать
Просмотров: 707
Be'Lakor
Husks

This is the actual way to play the the song, I think.

Legend
\ = Slide down to note
/ = Slide up to note
r = let the note ring

Introduction
Guitar 1

E||-------------------|
B||-----5-------5-----|
G||---6---6---6---6---|
D||-------------------|
A||-4-------4---------|
E||-------------------| x8

E||-------------------------------------|
B||-----5-------4-------5-------7-------|
G||---6---6---6---6---6---6---6---6-----|
D||-------------------------------------|
A||-4-------4-------4-------4-----------|
E||-------------------------------------| x2

Guitar 2

E||-------------------|
B||-------------------|
G||-----6-------6-----|
D||---6---6---6---6---|
A||-4-------4---------|
E||-------------------| x12


Guitar 1

E||--------------------------------|-------------------------------|
B||-----5-----7-----9-----7-----5/4|-----4-----5-----7---5---4---5-|
G||---6-----6-----6-----6-----6----|---6-----6-----6---------------|
D||--------------------------------|-------------------------------|
A||-0-----0-----0-----0-----0------|-0-----0-----0-----0---0---0---|
E||--------------------------------|-------------------------------| x1 

Guitar 2

E||---------------0----------------|
B||---------0-------0---0-----0----|
G||-----2-----2-------2---2-----2--|
D||---2---2-----2-----------2-----2|
A||-0------------------------------|
E||--------------------------------| x2

Guitar 1

E||-----4-------4--|----------------|----------------|------------------|
B||----------------|-----5-------5--|-----7-------5--|------------------|
G||---6---6---6---6|---6---6---6---6|---6---6---6---6|-----8-------8-9--|
D||----------------|----------------|-4-------4------|---9---9---9------|
A||-4-------4------|-0-------0------|----------------|-6-------6--------|
E||----------------|----------------|----------------|------------------| 
 (Repeat until fade out)

Guitar 2

E||--------------------|-------------------|
B||--------------------|-------------------|
G||-7/9r-8r-\6r--------|-9/11r-9-\4r-------|
D||--------------------|-------------------|
A||--------------------|-------------------|
E||--------------------|-------------------| x1

Guitar 2

E||--------------------|---------------------------|
B||--------------------|---------------------------|
G||-7/9r-8r-\6r--------|-9/11-9r-11/13-11-9-8------|
D||--------------------|---------------------------|
A||--------------------|---------------------------|
E||--------------------|---------------------------| x1

E||-----0-----0-----0-----0-----0--------0-----0---------0------0---0----|
B||---0-----0-----0-----0-----0--------0-----0---------0------0---------0|
G||-9-----8-----6-----9-----8-----9-11-----9-----11/13-----11-----9---8--|
D||----------------------------------------------------------------------|
A||----------------------------------------------------------------------|
E||----------------------------------------------------------------------|
x6 

Guitar 2
(After repeating the riff above x6, this is the final note at the end of the last riff)

E||-------------------|
B||-9r----------------|
G||-------------------|
D||-------------------|
A||-------------------|
E||-------------------| 

Tabbed by: Rani Man
Its pretty close I think.

Добавлено: 21.02.2012
Другие материалы по этой песне:

Страница создана 21.02.2012
http://primanota.ru/belakor/husks-chords.htm
Привет, Гость.
Предлагаем пройти революционный курс по гитаре.
Подарок от PrimaNota.Ru, забирай!