PrimaNota.ru - самый крупный в мире бесплатный архив песенных текстов, аккордов, табулатур и нот


Bela Fleck And The Flecktones - Intro - таба, видео

Регистрация Запомнить меня
Войти через:  Facebook Google Twitter Vk Yandex Mail.ru

Bela Fleck And The Flecktones - Intro - таба, видео

Печатать
Просмотров: 96
Song:    Intro
Artist:  Bela Fleck and the Flecktones
Album:   Outbound

	This is the first track on the album.  There is no guitar, though I
wanted to arrange the two horns for guitar.  I may go back later and tab out
each horn separately, but it sounds like it will be difficult to distinguish
one from the other.  Technically this is both horns arranged for guitar, it
is only slightly different (if at all) from the louder of the two horns.

	I used "CD Looper" to loop parts of the track so that it could be
deciphered more quickly.  I didn't need to slow it down at all.  The
beginning fades in and it fades into the second track on the album entitled
"Hoe Down".  It's played freely -- I couldn't nail it down to any specific
time
scheme.

	I hope to be tabbing out (and posting) several instruments throughout
this album if I get the time in the next few months.  For any comments or
corrections, please e-mail me at mah28@drexel.edu.


  Fade In...
  0:05
E|------------------------------------------------------------------------|
B|------------------------------------------------------------------------|
G|--/-16---------------------------------------17-------------------------|
D|---------12--11---12---15--15-----------14-------14--13--14---17--------|
A|------------------------------------------------------------------------|
E|------------------------------------------------------------------------|




 0:12
E|------------------------------------------------------------------------|
B|------------------------------------------------------------------------|
G|-------19-------------------------------------16---14--13--14---17------|
D|--16-------16--15---16---19--19-----------17----------------------------|
A|------------------------------------------------------------------------|
E|------------------------------------------------------------------------|




 0:22
E|------------------------------------------------------------------------|
B|---------------------------19--19----------17--15---------------15------|
G|--14---17----16--15---16----------------------------17--14--------------|
D|------------------------------------------------------------14----------|
A|------------------------------------------------------------------------|
E|------------------------------------------------------------------------|



  0:31						      Fade Into "Hoe Down"
E|------------------------------------------------------------------------|
B|------------------------------------------------------------------------|
G|--17---16---------------------------------------------------------------|
D|--------------17---14-----12---17-----17-----17-------------------------|
A|------------------------------------------------------------------------|
E|------------------------------------------------------------------------|

     
Добавлено: 19.07.2013
Другие материалы по этой песне:
  • Аккорды и текст

Страница создана 19.07.2013
http://primanota.ru/bela-fleck-and-the-flecktones/intro-chords.htm
Привет, Гость.
Предлагаем пройти революционный курс по гитаре.
Подарок от PrimaNota.Ru, забирай!