PrimaNota.ru - самый крупный в мире бесплатный архив песенных текстов, аккордов, табулатур и нот


Bela Fleck And The Flecktones - Big Country - таба, видео

Регистрация Запомнить меня
Войти через:  Facebook Google Twitter Vk Yandex Mail.ru

Bela Fleck And The Flecktones - Big Country - таба, видео

Печатать
Просмотров: 93
Уроки эстрадного вокала в Санкт-Петербурге
-------------------------------------------------------------------------------
                             BIG COUNTRY - Bela Fleck And The Flecktones
-------------------------------------------------------------------------------
Tabbed by: Carson2704

This is just the main melody, as the real thing is played on a banjo. Just a fun little 
melody that I think
y'all will like.

Tuning: E A D G B E

MELODY 1

e|-----0-0-2-4-2-0-4-2-0---0--------0-0-2-4-4-7-9-7---7------7-9-11p9-7------|
B|-0-2-------------------2-0----0-2-----------------9-9----9------------9-7--|
G|--------------------------------------------------------------------------9|
D|---------------------------------------------------------------------------|
A|---------------------------------------------------------------------------|
E|---------------------------------------------------------------------------|

e|------------------0-0-2-4-2-0-2-0------------------------------------------|
B|-9-7----------0-2-----------------2--2\5-5-2\5-5-2\5-5---------------------|
G|-----9-6-9-----------------------------------------------------------------|
D|---------------------------------------------------------------------------|
A|---------------------------------------------------------------------------|
E|---------------------------------------------------------------------------|

MELODY 2

e|-12---11---9---7--12--11--9-7-16--12--11--9-11-----------------------------|
B|9----9----9---9--9---9---9-------9---9---9----9-7--------9-----------------|
G|--------------------------------------------------9--6-9-------------------|
D|---------------------------------------------------------------------------|
A|---------------------------------------------------------------------------|
E|---------------------------------------------------------------------------|

That's it! Have fun with this.

************************************

| /   slide up
| \   slide down
| h   hammer-on
| p   pull-off
| ~   vibrato
| +   harmonic
| x   Mute note
| b   Bend
| pb  Pre-bend
| br  Bend release
| pbr Pre-bend release
| brb Bend release bend

************************************
Добавлено: 18.07.2015
Другие материалы по этой песне:
  • Аккорды и текст

Страница создана 18.07.2015
http://primanota.ru/bela-fleck-and-the-flecktones/big-country-chords.htm
Привет, Гость.
Предлагаем пройти революционный курс по гитаре.
Подарок от PrimaNota.Ru, забирай!