PrimaNota.ru - самый крупный в мире бесплатный архив песенных текстов, аккордов, табулатур и нот


Being As An Ocean - The Hardest Part Is Forgetting Those You Swore You Would Never Forget - таба, видео

Регистрация Запомнить меня
Войти через:  Facebook Google Twitter Vk Yandex Mail.ru

Being As An Ocean - The Hardest Part Is Forgetting Those You Swore You Would Never Forget - таба, видео

Печатать
Просмотров: 433
Band: Being As An Ocean
Song: The Hardest Part Is Forgetting Those You Swore You Would Never Forget
Album: Dear G-d...
Tabbed by Tyler Ross
Submitted By: Being As An Ocean (AsAnOcean@gmail.com)

tuning C G C F A D

Intro/1st guitar:
|-------------------------------------------------------------|
|---10------10------10------10------10------------------------| cont.
|-7-------7-------7-------7-------7---------------------------|
|------10------10------10------10------10---------------------|
|-------------------------------------------------------------|
|-------------------------------------------------------------|

|-------------------------------------------------------------|
|---10------10------10------10------10------------------------| 2x
|-7-------7-------7-------7-------7---------------------------|
|------8-------8-------8-------8-------8----------------------|
|-------------------------------------------------------------|
|-------------------------------------------------------------|

Intro/2nd guitar:
|-------------------8-----------------------------------------|
|-6--3--6-------6-------6-------------------------------------|
|------------/9---9---------9---------------------------------|
|-------------------------------------------------------------|
|-------------------------------------------------------------|
|-------------------------------------------------------------|


Verse/1st guitar:
|-------------------------------------------------------------|
|---10------10------10------10------10------------------------| cont.
|-7-------7-------7-------7-------7---------------------------|
|------10------10------10------10------10---------------------|
|-------------------------------------------------------------|
|-------------------------------------------------------------|

|-------------------------------------------------------------|
|---10------10------10------10------10------------------------| 4x
|-7-------7-------7-------7-------7---------------------------|
|------8-------8-------8-------8-------8----------------------|
|-------------------------------------------------------------|
|-------------------------------------------------------------|

Verse/2nd guitar:
|-------------------------------------------------------------|
|-------------------------------------------------------------| 2x
|-------------------------------------------------------------| 
|-------------------------------------------------------------|
|-------------------------------------------------------------|
|-0-0-0-0-----0--0--0-0-0-0----0------------------------------|

Verse/2nd guitar:
|-------------------------------------------------------------|
|-------------------------------------------------------------| 2x
|-------------------------------------------------------------| 
|-------------------------------------------------------------|
|-------------------------------------------------------------|
|-0-0-0-0-----------------------------------------------------|

Verse/3rd guitar:
|-------------------8-----------------------------------------|
|-6--3--6-------6-------6-------------------------------------| 2x
|------------/9---9---------9---------------------------------| 
|-------------------------------------------------------------|
|-------------------------------------------------------------|
|-------------------------------------------------------------|

Chorus/Both guitars:

|-------------------------------------------------------------|
|-------------------------------------------------------------| cont.
|-------------------------------------------------------------|
|-12-12-12-12-12-12-12-12-12-12-12-12-12-12-12-12-------------|
|-12-12-12-12-12-12-12-12-12-12-12-12-12-12-12-12-------------|
|-12-12-12-12-12-12-12-12-12-12-12-12-12-12-12-12-------------|

|-------------------------------------------------------------|
|-------------------------------------------------------------| cont.
|-------------------------------------------------------------|
|-12-12-12-12-12-12-12-12-12-12-12-12-12-12-12-12-------------|
|-10-10-10-10-10-10-10-10-10-10-10-10-10-10-10-10-------------|
|-10-10-10-10-10-10-10-10-10-10-10-10-10-10-10-10-------------|

|-------------------------------------------------------------|
|-------------------------------------------------------------| cont.
|-------------------------------------------------------------| 
|-10-10-10-10-10-10-10-10-10-10-10-10-10-10-10-10-------------|
|-8--8--8--8--8--8--8--8--8--8--8--8--8--8--8--8--------------|
|-8--8--8--8--8--8--8--8--8--8--8--8--8--8--8--8--------------|

|-------------------------------------------------------------|
|-------------------------------------------------------------| 2x
|-------------------------------------------------------------| 
|-5--7--7--7--7--7--7--7--7--7--7--7--7--7--7--7--------------|
|-3--5--5--5--5--5--5--5--5--5--5--5--5--5--5--5--------------|
|-3--5--5--5--5--5--5--5--5--5--5--5--5--5--5--5--------------|

Post-Chorus/1st guitar:
|-------------------------------------------------------------|
|-------------------------------------------------------------| Until Bridge
|--------2---------------2---------------2---------------5----|
|---3---------------3---------------3---------------3---------|
|-5----5----------5----5----------5----5----------7----7------|
|-------------------------------------------------------------|

Post-Chorus/2nd guitar:
|-------------------------------------------------------------|
|-----------10-------------10-------------10-------------13---| Until Bridge
|----10-------------10-------------10-------------10----------|
|-12-----12------12-----12------12-----12------14-----14------|
|-------------------------------------------------------------|
|-------------------------------------------------------------|

Post-Chorus/3rd guitar:
|-------------------------------------------------------------|
|-------------------------------------------------------------| From "That Ember 
|-------------------10-------------10-----10------------------| Still Glows" Until Bridge
|-(7h8-1st time)--------10--7--7h8----7h8----7-7--------------|
|-------------------------------------------------------------|
|-------------------------------------------------------------|

Post-Chorus/4th guitar:
|-------------------13----------------13-------13-------------|
|-(10h11-1st time)------13--10--10h11----10h11----10-10-------| From "That Ember 
|-------------------------------------------------------------| Still Glows" Until Bridge
|-------------------------------------------------------------|
|-------------------------------------------------------------|
|-------------------------------------------------------------|

Bridge/1st guitar:

|-------------------------------------------------------------|
|-------------------------------------------------------------| cont.
|-14-14-14-14-14-14-14-14-14-14-14-14-14-14-14-9--------------|
|-x--x--x--x--x--x--x--x--x--x--x--x--x--x--x--x--------------|
|-12-12-12-12-12-12-12-12-12-12-12-12-12-12-12-7--------------|
|-------------------------------------------------------------|

|-------------------------------------------------------------|
|-------------------------------------------------------------| cont.
|-10-10-10-10-10-10-10-10-10-10-10-10-10-10-10-10-------------|
|-x--x--x--x--x--x--x--x--x--x--x--x--x--x--x--x--------------|
|-8--8--8--8--8--8--8--8--8--8--8--8--8--8--8--8--------------|
|-------------------------------------------------------------|

|-------------------------------------------------------------|
|-------------------------------------------------------------| cont.
|-10-10-10-10-10-10-10-10-14-14-14-12-12-12-12-12-------------|
|-x--x--x--x--x--x--x--x--x--x--x--x--x--x--x--x--------------|
|-8--8--8--8--8--8--8--8--12-12-12-10-10-10-10-10-------------|
|-------------------------------------------------------------|

|-------------------------------------------------------------|
|-------------------------------------------------------------|
|-15-15-15-14-14-14-14-14-14-14-14-14-14-14-14-14-------------|
|-x--x--x--x--x--x--x--x--x--x--x--x--x--x--x--x--------------|
|-13-13-13-12-12-12-12-12-12-12-12-12-12-12-12-12-------------|
|-------------------------------------------------------------|

Bridge/2nd guitar:

|-------------------------------------------------------------|
|-------------------------------------------------------------| cont.
|-7--7--7--7--7--7--7--7--7--7--7--7--7--7--7--7--------------|
|-x--x--x--x--x--x--x--x--x--x--x--x--x--x--x--x--------------|
|-5--5--5--5--5--5--5--5--5--5--5--5--5--5--5--5--------------|
|-------------------------------------------------------------|

|-------------------------------------------------------------|
|-------------------------------------------------------------| cont.
|-10-10-10-10-10-10-10-10-10-14-14-14-14-14-14-14-------------|
|-x--x--x--x--x--x--x--x--x--x--x--x--x--x--x--x--------------|
|-10-10-10-10-10-10-10-10-10-12-12-12-12-12-12-12-------------|
|-------------------------------------------------------------|

|-------------------------------------------------------------|
|-------------------------------------------------------------| cont.
|-15-15-15-15-15-15-15-15-15-15-15-15-15-15-15-15-------------|
|-x--x--x--x--x--x--x--x--x--x--x--x--x--x--x--x--------------|
|-13-13-13-13-13-13-13-13-13-13-13-13-13-13-13-13-------------|
|-------------------------------------------------------------|

|-------------------------------------------------------------|
|-------------------------------------------------------------| 
|-15-15-15-9--9--9--9--9--9--9--9--9--9--9--9--9--------------|
|-x--x--x--x--x--x--x--x--x--x--x--x--x--x--x--x--------------|
|-13-13-13-7--7--7--7--7--7--7--7--7--7--7--7--7--------------|
|-------------------------------------------------------------|

Chorus/1st guitar:

|-------------------------------------------------------------|
|-------------------------------------------------------------| cont.
|-------------------------------------------------------------|
|-12-12-12-12-12-12-12-12-12-12-12-12-12-12-12-12-------------|
|-12-12-12-12-12-12-12-12-12-12-12-12-12-12-12-12-------------|
|-12-12-12-12-12-12-12-12-12-12-12-12-12-12-12-12-------------|

|-------------------------------------------------------------|
|-------------------------------------------------------------| cont.
|-------------------------------------------------------------|
|-12-12-12-12-12-12-12-12-12-12-12-12-12-12-12-12-------------|
|-10-10-10-10-10-10-10-10-10-10-10-10-10-10-10-10-------------|
|-10-10-10-10-10-10-10-10-10-10-10-10-10-10-10-10-------------|

|-------------------------------------------------------------|
|-------------------------------------------------------------| cont.
|-------------------------------------------------------------| 
|-10-10-10-10-10-10-10-10-10-10-10-10-10-10-10-10-------------|
|-8--8--8--8--8--8--8--8--8--8--8--8--8--8--8--8--------------|
|-8--8--8--8--8--8--8--8--8--8--8--8--8--8--8--8--------------|

|-------------------------------------------------------------|
|-------------------------------------------------------------| 2x
|-------------------------------------------------------------| 
|-5--7--7--7--7--7--7--7--7--7--7--7--7--7--7--7--------------|
|-3--5--5--5--5--5--5--5--5--5--5--5--5--5--5--5--------------|
|-3--5--5--5--5--5--5--5--5--5--5--5--5--5--5--5--------------|

Chorus/2nd guitar:

|-------------------------------------------------------------|
|-------------------------------------------------------------| cont.
|-10-10-10-10-10-10-10-10-10-5--5--5--5--7--7--7--------------|
|-x--x--x--x--x--x--x--x--x--x--x--x--x--x--x--x--------------|
|-8--8--8--8--8--8--8--8--8--3--3--3--3--5--5--5--------------|
|-------------------------------------------------------------|

|-------------------------------------------------------------|
|-------------------------------------------------------------| cont.
|-7--14-14-14-14-12-12-12-12-10-10-10-10-12-12-12-------------|
|-x--x--x--x--x--x--x--x--x--x--x--x--x--x--x--x--------------|
|-5--12-12-12-12-10-10-10-10-8--8--8--8--10-10-10-------------|
|-------------------------------------------------------------|

|-------------------------------------------------------------|
|-------------------------------------------------------------| cont.
|-3--3--3--3--3--3--3--3--3--3--3--3--3--3--7--7--------------|
|-x--x--x--x--x--x--x--x--x--x--x--x--x--x--x--x--------------|
|-1--1--1--1--1--1--1--1--1--1--1--1--1--1--5--5--------------|
|-------------------------------------------------------------|

|-------------------------------------------------------------|
|-------------------------------------------------------------| 2x
|-14-14-14-14-14-14-5--5--12-12-12-12-12-12-12-12-------------|
|-x--x--x--x--x--x--x--x--x--x--x--x--x--x--x--x--------------|
|-12-12-12-12-12-12-3--3--10-10-10-10-10-10-10-10-------------|
|-------------------------------------------------------------|

Outro/1st guitar:

|-------------------------------------------------------------|
|-------------------------------------------------------------| cont.
|-------------------------------------------------------------|
|-12-12-12-12-12-12-12-12-12-12-12-12-12-12-12-12-------------|
|-12-12-12-12-12-12-12-12-12-12-12-12-12-12-12-12-------------|
|-12-12-12-12-12-12-12-12-12-12-12-12-12-12-12-12-------------|

|-------------------------------------------------------------|
|-------------------------------------------------------------| cont.
|-------------------------------------------------------------|
|-12-12-12-12-12-12-12-12-12-12-12-12-12-12-12-12-------------|
|-10-10-10-10-10-10-10-10-10-10-10-10-10-10-10-10-------------|
|-10-10-10-10-10-10-10-10-10-10-10-10-10-10-10-10-------------|

|-------------------------------------------------------------|
|-------------------------------------------------------------| cont.
|-------------------------------------------------------------| 
|-10-10-10-10-10-10-10-10-10-10-10-10-10-10-10-10-------------|
|-8--8--8--8--8--8--8--8--8--8--8--8--8--8--8--8--------------|
|-8--8--8--8--8--8--8--8--8--8--8--8--8--8--8--8--------------|

|-------------------------------------------------------------|
|-------------------------------------------------------------| 2x
|-------------------------------------------------------------| 
|-5--7--7--7--7--7--7--7--7--7--7--7--7--7--7--7--------------|
|-3--5--5--5--5--5--5--5--5--5--5--5--5--5--5--5--------------|
|-3--5--5--5--5--5--5--5--5--5--5--5--5--5--5--5--------------|

Outro/2nd guitar:

|-------------------------------------------------------------|
|-------------------------------------------------------------| cont.
|-10-10-10-10-10-10-10-10-10-5--5--5--5--7--7--7--------------|
|-x--x--x--x--x--x--x--x--x--x--x--x--x--x--x--x--------------|
|-8--8--8--8--8--8--8--8--8--3--3--3--3--5--5--5--------------|
|-------------------------------------------------------------|

|-------------------------------------------------------------|
|-------------------------------------------------------------| cont.
|-7--14-14-14-14-12-12-12-12-10-10-10-10-12-12-12-------------|
|-x--x--x--x--x--x--x--x--x--x--x--x--x--x--x--x--------------|
|-5--12-12-12-12-10-10-10-10-8--8--8--8--10-10-10-------------|
|-------------------------------------------------------------|

|-------------------------------------------------------------|
|-------------------------------------------------------------| cont.
|-3--3--3--3--3--3--3--3--3--3--3--3--3--3--7--7--------------|
|-x--x--x--x--x--x--x--x--x--x--x--x--x--x--x--x--------------|
|-1--1--1--1--1--1--1--1--1--1--1--1--1--1--5--5--------------|
|-------------------------------------------------------------|

|-------------------------------------------------------------|
|-------------------------------------------------------------| 2x
|-14-14-14-14-14-14-5--5--12-12-12-12-12-12-12-12-------------|
|-x--x--x--x--x--x--x--x--x--x--x--x--x--x--x--x--------------|
|-12-12-12-12-12-12-3--3--10-10-10-10-10-10-10-10-------------|
Добавлено: 16.10.2013
Другие материалы по этой песне:

Страница создана 01.07.2013
http://primanota.ru/being-as-an-ocean/the-hardest-part-is-forgetting-those-you-swore-you-would-never-forget-chords.htm
Привет, Гость.
Предлагаем пройти революционный курс по гитаре.
Подарок от PrimaNota.Ru, забирай!