PrimaNota.ru - самый крупный в мире бесплатный архив песенных текстов, аккордов, табулатур и нот


Being As An Ocean - The Sea Always Seemed To Put Me At Ease - таба, видео

Регистрация Запомнить меня
Войти через:  Facebook Google Twitter Vk Yandex Mail.ru

Being As An Ocean - The Sea Always Seemed To Put Me At Ease - таба, видео

Печатать
Просмотров: 53
-------------------------------------------------------------------------------
         THE SEA ALWAYS SEEMED TO PUT ME AT EASE - Being as an Ocean
-------------------------------------------------------------------------------
Tabbed by: Ian Dalton
E-mail:     iandalton9690@gmail.com

Tuning:

This is 80% of the song in these two chords here. Listen to the song for the picking pattern. 
Hold the chords so the notes ring out as long as possible. Played with light
distortion at first, and a bit of delay. More distortion and less delay later.
again, listen to the song for more details on this.


D|-------------------------------------------------------------------------|
A|-------------------------------------------------------------------------|
F|--------2---------2------------------------------------------------------|
C|------0---------0--------------------------------------------------------|
G|----3---------1----------------------------------------------------------|
C|-------------------------------------------------------------------------|

Toward the end this part happens. There are a few ways you could do this
but this seems like the shortest stretch. Again, let each note ring as long
as possible for best effect. This part switches from the distortion built
in the last part back to the clean, but with no delay. Hold the 1-3-2 chord 
with first three fingers and the 5-3-5 chord with index on three and pinky and
ring fingers on 5.

D|---------------------------------------------------------------------------|
A|---------------------------------------------------------------------------|
F|-----2-------------5--------5----------------------------------------------|
C|---3---3---------3----2--3-------------------------------------------------|
G|-1-------1---1/5-----------------------------------------------------------|
C|---------------------------------------------------------------------------|





************************************

| /   slide up
| \   slide down
| h   hammer-on
| p   pull-off
| ~   vibrato
| +   harmonic
| x   Mute note
| b   Bend
| pb  Pre-bend
| br  Bend release
| pbr Pre-bend release
| brb Bend release bend

************************************
Добавлено: 08.11.2015
Другие материалы по этой песне:
  • Аккорды и текст

Страница создана 08.11.2015
http://primanota.ru/being-as-an-ocean/sea-always-seemed-to-put-me-at-ease-chords.htm
Привет, Гость.
Предлагаем пройти революционный курс по гитаре.
Подарок от PrimaNota.Ru, забирай!