PrimaNota.ru - самый крупный в мире бесплатный архив песенных текстов, аккордов, табулатур и нот


Being As An Ocean - The Poets Cry For More - таба, видео

Регистрация Запомнить меня
Войти через:  Facebook Google Twitter Vk Yandex Mail.ru

Being As An Ocean - The Poets Cry For More - таба, видео

Печатать
Просмотров: 213
DADGBE

Guitar 1
[0:00]-[0:38]
|--------------------------------------------------------------------|
|--------------------------------------------------------------------|
|------0-------0-------0-------0--------0-------0-------0-------0----|
|------4-------4-------4-------4--------4-------4-------4-------4----|
|--2-2-2-2-2-2-2-2-2-2-2-2-2-2-2-2--0-0-0-0-0-0-0-0-0-0-0-0-0-0-0-0--|
|--------------------------------------------------------------------|
|
|x3

Guitar 2
[0:10]-[0:38]
|--------------------------------------|
|--------------------------------------|
|----7-6------------7-6----------------|
|--7-----7--------7-----7--------------|
|-----------9--------------9~----7~----|
|--------------------------------------|
|
|x2

Guitar 1
[0:38]-[0:58]
|--------------------------------------------|
|--19----16--14----18----19----16--14----18--|
|--------------------------------------------|
|--------------------------------------------|
|--------------------------------------------|
|--------------------------------------------|

Chorus
Guitars 1 & 2
[0:58]-[1:23]
|-------------------------------------|
|-------------------------------------|
|--00000000-00000000-44444444-22222222--|
|--44444444-44444444-22222222-22222222--|
|--22222222-22222222-55555555-00000000--|
|--00000000-00000000-55555555-00000000--|
|
|x4

Guitar 1
[1:26]-[1:52]
|-------------------------------------|
|-11-11-11-11-11-11-11-11-11-11-11^12-|
|-x--x--x--x--x--x--x-x---x--x--x--x--|
|-9--9--9--9--9--9--9--9--9--9--9-^10-|
|-------------------------------------|
|-------------------------------------|
|
|x4

Guitar 2
[1:23]-[1:52]
|-------------------------------------------------------------------|
|-------------------------------------------------------------------|
|----7-6------------7-6------------7-6------------7-6---------------|
|--7-----7-------7-----7--------7-----7--------7-----7--------------|
|----------9--------------9--------------9--------------9----7---5--|
|-------------------------------------------------------------------|
|
|x1

Guitar 1
[1:52]-[2:05]
|---------------------------------|
|--14h16-14h16--------------------|
|---------------------17--16--14--|
|--------------17-----------------|
|---------------------------------|
|---------------------------------|
|
|x2

Chorus
Guitars 1 & 2
[2:05]-[2:30]
|---------------------------------------|
|---------------------------------------|
|--00000000-00000000-44444444-22222222--|
|--44444444-44444444-22222222-22222222--|
|--22222222-22222222-55555555-00000000--|
|--00000000-00000000-55555555-00000000--|
|
|x4

Guitar 1
[2:34]-[2:59]
|----------------------------------------------------------|
|----------------------------------------------------------|
|--14/16-16-16-16-16\7-7-7-7-7-7-7-12-11-9--9--9--9--9--9--|
|--x--x--x--x--x--x--x-x-x-x-x-x-x-x--x--x--x--x--x--x--x--|
|--13/14-14-14-14-14\5-5-5-5-5-5-5-10-9--7--7--7--7--7--7--|
|----------------------------------------------------------|
|
|x4

Guitar 1
[2:59]-[End]
|------------------------------------------------------|
|------------------------------------------------------|
|---------------------------------------------2-2-2-2--|
|--2h4-4-4-4--4---2h4-4-4--4-4--4h7-7-7--7-7--0-0-0-0--|
|--2--2-2-2-2--2--2-2-2-2--2-2--5-5-5-5--5-5--0-0-0-0--|
|---------------------------------------------0-0-0-0--|
|x2

*Alternate Ending Tab: I like to play this on acoustic in a D-variant tuning*

DADGAD

|--0--0-0-0-0--0---0-0-0-0-0-0--0-0-0-0-0-0--0-0-0-0--|
|--0--0-0-0-0--0---0-0-0-0-0-0--0-0-0-0-0-0--0-0-0-0--|
|--0--0-0-0-0--0---0-0-0-0-0-0--0-0-0-0-0-0--2-2-2-2--|
|--4--4-4-4-4--4---4-4-4-4-4-4--7-7-7-7-7-7--2-2-2-2--|
|--2--2-2-2-2--2---2-2-2-2-2-2--5-5-5-5-5-5--0-0-0-0--|
|--0--0-0-0-0--0---0-0-0-0-0-0--5-5-5-5-5-5--0-0-0-0--|
Добавлено: 06.05.2015
Другие материалы по этой песне:
  • Аккорды и текст

Страница создана 06.05.2015
http://primanota.ru/being-as-an-ocean/poets-cry-for-more-chords.htm
Привет, Гость.
Предлагаем пройти революционный курс по гитаре.
Подарок от PrimaNota.Ru, забирай!