PrimaNota.ru - самый крупный в мире бесплатный архив песенных текстов, аккордов, табулатур и нот


Being As An Ocean - Little Richie - таба, видео

Регистрация Запомнить меня
Войти через:  Facebook Google Twitter Vk Yandex Mail.ru

Being As An Ocean - Little Richie - таба, видео

Печатать
Просмотров: 123
Band: Being As An Ocean
Song: Little Richie
Album: Being As An Ocean
Tabbed by Tyler Ross
Submitted By: Being As An Ocean (AsAnOcean@gmail.com)

tuning D A D G B E

Intro/Keyboard:
|-------------------------------------------------------------|
|-------------------------------------------------------------| 
|-----6-------6-------4---------------------------------------|
|---4-------4-------2---------11------------------------------|
|---------------------------9---------------------------------|
|-4-------0-------2-------9-----------------------------------|

Verse/1st guitar:
|-5h----------------------------------------------------------|
|-5h-----5------5---------------------------------------------| 2x
|-5h-----6------6------4--------------------------------------|
|-5h-x3--4-x12--4-x12--2-x12--11-x12--------------------------|
|-5h-----4------0------2------9-------------------------------|
|-5h-----4------0------2------9-------------------------------|

Verse/2nd guitar:
|-5h----------------------------------------------------------|
|-5h-----5------5---------------------------------------------| 2x
|-5h-----6------6------4--------------------------------------|
|-5h-x3--4-x12--4-x12--2-x12--11-x12--------------------------|
|-5h-----4------0------2------9-------------------------------|
|-5h-----4------0------2------9-------------------------------|

Pre-Chorus/1st guitar:
|-------------------------------------------------------------|
|-------------------------------------------------------------| 2x
|-------------------------------------------------------------|
|-------------------------------------------------------------|
|-------------------------------------------------------------|
|-00000000000000000000000000000000----------------------------|

|-------------------------------------------------------------|
|-------------------------------------------------------------| cont.
|-------------------------------------------------------------|
|-------------------------------------------------------------|
|-------------------------------------------------------------|
|-4444444444444444[2222222222222222-first time]---------------|

Pre-Chorus/2nd guitar:
|-------------------------------------------------------------|
|-------------------------------------------------------------| 2x
|-------------------------------------------------------------|
|--------------------------11-11-11-11-999--------------------|
|-9999999999999999999999999-----------------------------------|
|-------------------------------------------------------------|

|-------------------------------------------------------------|
|---------------------------------------[10-]-----------------| cont.
|---------------------------------------[11-]-----------------| 
|---------------------------------------[9--]-----------------|
|---------------------------------------[9--]-----------------|
|-12-x16---------[-11-x16-first time-]--[9--second time]------|

Chorus/1st guitar:
|-5h----------------------------------------------------------|
|-5h-----5------5---------------------------------------------| 
|-5h-----6------6------4--------------------------------------|
|-5h-x3--4-x12--4-x12--2-x12--11-x12--------------------------|
|-5h-----4------0------2------9-------------------------------|
|-5h-----4------0------2------9-------------------------------|

|-------------------------------------------------------------|
|5------5-----------------------------------------------------| 
|6------6------4----------------------------------------------|
|4-x12--4-x12--2-x12--11-x12----------------------------------|
|4------0------2------9---------------------------------------|
|4------0------2------9---------------------------------------|

Chorus/2nd guitar:
|-------------------------------------------------------------|
|-5/7p0--7/10p0--10/14p0--14/12p0--10/9p0---------------------| x4
|-------------------------------------------------------------|
|-------------------------------------------------------------|
|-------------------------------------------------------------|
|-------------------------------------------------------------|

|-------------------------------------------------------------|
|-------------------------------------------------------------| tremolo picking
|-14-~--13-~bend up--11-~-------------------------------------|
|-------------------------------------------------------------|
|-------------------------------------------------------------|
|-------------------------------------------------------------|

Bridge/1st guitar:
|-------------------------------------------------------------|
|-------------------------------------------------------------| x12
|-------------------------------------------------------------|
|-------------------------------------------------------------|
|-------------------------------------------------------------|
|-4-4-4-16-16-16-16-16-16-16-16-16-16-16-16-16----------------|

Bridge/2nd guitar:
|-------------------------------------------------------------|
|-------------------------------------------------------------| x8
|-------------------------------------------------------------|
|-------------------------------------------------------------|
|-------------------------------------------------------------|
|-4-4-4-16-16-16-16-16-16-16-16-16-16-16-16-16----------------|

Pre-Chorus/1st guitar:
|-------------------------------------------------------------|
|------------------------5------------------------------------| 
|---------6----------------6-----------6--------6b7b6---------|
|-----4-----(4)-------4------4-----4--------4-----------------|
|---4---4------(4)--4---4--------0---0----0---0---------------|
|-4----------------------------0------------------------------|

|-------------------------------------------------------------|
|-------------------------------------------------------------| 
|---------4--------------4------------------------------------|
|-----2-----(2)-------2----2------------11----------7---------|
|---2---2------(2)--2---2----2------9-----------7h9---9p0-----|
|-2---------------------------/9--9---9-----7h9---------------|

|-------------------------------------------------------------|
|------------------------5------------------------------------| 
|---------6----------------6-----------6--------6b7b6---------|
|-----4-----(4)-------4------4-----4--------4-----------------|
|---4---4------(4)--4---4--------0---0----0---0---------------|
|-4----------------------------0------------------------------|

|-------------------------------------------------------------|
|-------------------------------------------------------------| 
|---------4--------------4------------------------------------|
|-----2-----(2)-------2----2------------11--------------------|
|---2---2------(2)--2---2----2------9-------------------------|
|-2---------------------------/9--9---9-----------------------|

Pre-Chorus/2nd guitar:
|-------------------------------------------------------------|
|-------------------------------------------------------------| x4
|-------------------------------------------------------------|
|-------------------------------------------------------------|
|-------------------------------------------------------------|
|-4-4-4-16-16-16-16-16-16-16-16-16-16-16-16-16----------------|

Chorus/1st guitar:
|-5h----------------------------------------------------------|
|-5h-----5------5---------------------------------------------| 
|-5h-----6------6------4--------------------------------------|
|-5h-x3--4-x12--4-x12--2-x12--11-x12--------------------------|
|-5h-----4------0------2------9-------------------------------|
|-5h-----4------0------2------9-------------------------------|

|-------------------------------------------------------------|
|5------5-----------------------------------------------------| 
|6------6------4----------------------------------------------|
|4-x12--4-x12--2-x12--11-x12----------------------------------|
|4------0------2------9---------------------------------------|
|4------0------2------9---------------------------------------|

Chorus/2nd guitar:
|-------------------------------------------------------------|
|-5/7p0--7/10p0--10/14p0--14/12p0--10/9p0---------------------| x4
|-------------------------------------------------------------|
|-------------------------------------------------------------|
|-------------------------------------------------------------|
|-------------------------------------------------------------|

|-------------------------------------------------------------|
|-------------------------------------------------------------| tremolo picking
|-14-~--13-~-bend up-11-~-------------------------------------|
|-------------------------------------------------------------|
|-------------------------------------------------------------|
|-------------------------------------------------------------|

Outro/1st guitar:
|-------------------------------------------------------------|
|5------5-----------------------------------------------------| 
|6------6------4----------------------------------------------|
|4-x12--4-x12--2-x12--11-x12----------------------------------|
|4------0------2------9---------------------------------------|
|4------0------2------9---------------------------------------|

|-------------------------------------------------------------|
|5------5-----------------------------------------------------| 
|6------6------4----------------------------------------------|
|4-x12--4-x12--2-x12--11-x12----------------------------------|
|4------0------2------9---------------------------------------|
|4------0------2------9---------------------------------------|

Outro/2nd guitar:
|-------------------------------------------------------------|
|-------------------------------------------------------------| x4
|-11------14-14-13-13--18-----14-----16------9/11--11---------|
|-x--x9---x--x--x--x---x--x6--x--x6--x--x12--x/x---x--x10-----|
|-9-------12-12-11-11--16-----12-----14------7/9---9----------|
|-------------------------------------------------------------|
Добавлено: 08.11.2015
Другие материалы по этой песне:
  • Аккорды и текст

Страница создана 08.11.2015
http://primanota.ru/being-as-an-ocean/little-richie-chords.htm
Привет, Гость.
Предлагаем пройти революционный курс по гитаре.
Подарок от PrimaNota.Ru, забирай!