PrimaNota.ru - самый крупный в мире бесплатный архив песенных текстов, аккордов, табулатур и нот


Being As An Ocean - Humble Servant Am I - таба, видео

Регистрация Запомнить меня
Войти через:  Facebook Google Twitter Vk Yandex Mail.ru

Being As An Ocean - Humble Servant Am I - таба, видео

Печатать
Просмотров: 220
Drop C Tuning


Guitar 1
[0:00]-[0:21]
|------------------------------------------------------------------|
|------------------------------------------------------------------|
|--7-7-7~---7-7-7--7-7-7--xx--10-10-10---10-10-10\--2-2-2--2-2-2/--|
|--x-x-x----x-x-x--x-x-x--xx--x--x--x----x--x--x----x-x-x--x-x-x---|
|--5-5-5~---5-5-5--5-5-5--xx--8--8--8----8--8--8\\--0-0-0--0-0-0/--|
|------------------------------------------------------------------|
|
|x4


Guitar 1
[0:21]-[1:03]
|------------------------------------------------------------------|
|------------------------------------------------------------------|
|--7-7-7-----------------------------------------------------------|
|--------10-10-10-7-7-7-7-7-7----------------8-8-8-7-7-7-7-7-7-7---|
|-----------------------------8-8-8-10-10-10-----------------------|
|------------------------------------------------------------------|


Guitar 1
[1:03]-[1:05]
|------------|
|--13~-------|
|--14~-------|
|-----15-14--|
|------------|
|------------|


Guitar 1
[1:15]-[1:18]
|---------------|
|---------------|
|--------2------|
|----3-----3----|
|--1---1-----1--|
|---------------|

Guitar 1 
[1:18]-[2:08]
|---------------------------------------------|
|---------------------------------------------|
|--2~-------------2-----2~----------2~--------|
|--3~--------3------3---3~----------3~--------|
|--5~-------5---5-------3~----------3~--------|
|---------------------------------------------|

Guitar 2
[1:18]-[2:08]
|--5~-------------5-----5~----------5~--------|
|--6~--------6------6---6~----------6~--------|
|--7~-------7---7-------5~----------5~--------|
|---------------------------------------------|
|---------------------------------------------|
|---------------------------------------------|

Guitar 1
[2:08]-[2:45]
|------------------------------------------------------------------------|
|------------------------------------------------------------------------|
|------------2----------------2-----------------0---------------0--------|
|------3---3---3---3~-----3-----3---3-----3---3---3---3~----3-----3---3--|
|--3/5---5-------5------5---5-----5-----3---3-------3-----3---3-----3----|
|------------------------------------------------------------------------|
|
|-----------------------------------|
|-----------------------------------|
|--------2-----------2--------------|
|----3-----3-----3-----3---2h3p2----|
|--1---1-----1-1---1-----1-------3--|
|-----------------------------------|
|
|x4

Guitar 1
[2:45]-[3:04]
|-------------------------------------------------------------------|
|-------------------------------------------------------------------|
|--7-7-7------------------------------------------------------------|
|--------10-10-10-7-7-7-7-7-7----------------8-8-8-7-7-7-7-7-7-7-7--|
|-----------------------------8-8-8-10-10-10------------------------|
|-------------------------------------------------------------------|

Guitar 1 & 2
Breakdown pt.A 
[3:07]-[3:31]
|------------------------------------|
|------------------------------------|
|------------------------------------|
|------------------------------------|
|------------------------------------|
|--0000--0000--0000--000000-0-00-00--|
|
|x4

Guitar 1 & 2
Breakdown pt.B
[3:23]-
|--------------------------------|
|--------------------------------|
|--------------------------------|
|--------------------------------|
|--------------------------------|
|--0000--------000000-000-00-00--|
|                      /\
|x2                    ||  
                     Triplet 
Guitar 1 & 2
Breakdown pt.A 
[3:31]-[3:39]
|------------------------------------|
|------------------------------------|
|------------------------------------|
|------------------------------------|
|------------------------------------|
|--0000--0000--0000--000000-0-00-00--|
|
|x2                    


Guitar 1 
[3:42]-[4:40]
|---------------------------------------------|
|---------------------------------------------|
|--2~-------------2-----2~----------2~--------|
|--3~--------3------3---3~----------3~--------|
|--5~-------5---5-------3~----------3~--------|
|---------------------------------------------|

Guitar 2
[3:42]-[4:40]
|--5~-------------5-----5~----------5~--------|
|--6~--------6------6---6~----------6~--------|
|--7~-------7---7-------5~----------5~--------|
|---------------------------------------------|
|---------------------------------------------|
|---------------------------------------------|
Добавлено: 21.09.2013
Другие материалы по этой песне:
  • Аккорды и текст

Страница создана 21.09.2013
http://primanota.ru/being-as-an-ocean/humble-servant-am-i-chords.htm
Привет, Гость.
Предлагаем пройти революционный курс по гитаре.
Подарок от PrimaNota.Ru, забирай!