PrimaNota.ru - самый крупный в мире бесплатный архив песенных текстов, аккордов, табулатур и нот


Being As An Ocean - Dear G-d - таба, бас-таба, видео

Регистрация Запомнить меня
Войти через:  Facebook Google Twitter Vk Yandex Mail.ru

Being As An Ocean - Dear G-d - таба, бас-таба, видео

Печатать
Просмотров: 360
Band: Being As An Ocean
Facebook: http://www.facebook.com/BeingAsAnOcean
Song: Dear G-d
Album: Dear G-d...
Tabbed by Tyler Ross
Submitted By: Being As An Ocean (AsAnOcean@gmail.com)

tuning C G C F A D

Intro/1st guitar:
|-------------------------------------------------------------|
|-------------------------------------------------------------| cont.
|--------9-------9-------9------------------------------------|
|---10------10------10------10---10---------------------------|
|-8----8-------8-------8-------8------------------------------|
|-------------------------------------------------------------|

|-------------------------------------------------------------|
|-------------------------------------------------------------| 2x
|--------9--------------------9------9------------------------|
|---10------10---10------10-----10-----10---------------------|
|-0----0-------0-------7----7------7--------------------------|
|-------------------------------------------------------------|

Verse/1st guitar:
|-------------------------------------------------------------|
|-------------------------------------------------------------| cont.
|--------9-------9-------9------------------------------------|
|---10------10------10------10---10---------------------------|
|-8----8-------8-------8-------8------------------------------|
|-------------------------------------------------------------|

|-------------------------------------------------------------|
|-------------------------------------------------------------| 4x
|--------9--------------------9------9------------------------|
|---10------10---10------10-----10-----10---------------------|
|-0----0-------0-------7----7------7--------------------------|
|-------------------------------------------------------------|

2nd guitar:
|-------------------------------------------------------------|
|-------------------------------------------------------------| cont.
|----12-------12-------12-------12-------12-------------------|
|-------10-------10-------10-------10-------10----------------|
|-12-------12-------12-------12-------12-------12-------------|
|-------------------------------------------------------------|

|-------------------------------------------------------------|
|-------------------------------------------------------------| 4x
|----12-------12-------12-------12-------12-------------------|
|-------10-------10-------10-------10-------10----------------|
|-14-------14-------14-------14-------14-------14-------------|
|-------------------------------------------------------------|

Pre-Chorus/1st guitar:

|----------------------------------|
|----------------------------------|
|---------12-----------------------|
|-----10---------------9b10b9------|
|-12----------10~~------------10---|
|----------------------------------|

Chorus/Both guitars:

|-------------------------------------------------------------|
|-------------------------------------------------------------| cont.
|----12-------12-------12-------12-------12-------------------|
|-------10-------10-------10-------10-------10----------------|
|-12-------12-------12-------12-------12-------12-------------|
|-------------------------------------------------------------|

|-------------------------------------------------------------|
|-------------------------------------------------------------| 2x
|----12-------12-------12-------12-------12-------------------|
|-------10-------10-------10-------10-------10----------------|
|-14-------14-------14-------14-------14-------14-------------|
|-------------------------------------------------------------|

1st guitar:

|------------------------------------------------------------------|
|------------------------------------------------------------------| 4x
|------------------------------------------------------------------|
|------------------------------------------------------------------|
|------------------------------------------------------------------|
|-3-3-3-3-3-3-3-3-3-3-3-3-3-3-3-3-7-7-7-7-7-7-7-7-2-2-2-2-2-2-2-0--|

2nd guitar:

|-------------------------------------------------------------|
|-------------------------------------------------------------| cont.
|----12-------12-------12-------12-------12-------------------|
|-------10-------10-------10-------10-------10----------------|
|-12-------12-------12-------12-------12-------12-------------|
|-------------------------------------------------------------|

|-------------------------------------------------------------|
|-------------------------------------------------------------| 4x
|----12-------12-------12-------12-------12-------------------|
|-------10-------10-------10-------10-------10----------------|
|-14-------14-------14-------14-------14-------14-------------|
|-------------------------------------------------------------|


Post-Chorus/1st guitar:
|-------------------------------------------------------------|
|-------------------------------------------------------------| cont.
|----------9---------12---------------------------12----------|
|----10------10---------10----9-10---------10--------10-------|
|-8------8------8----------8--------10/12------12-------12----|
|-------------------------------------------------------------|

|---------------------------|
|---------------------------| 
|-----------10-9------------|
|-----9----------10---------|
|-10-----10-----------------|
|---------------------------|

Bridge/Both guitars:

|-------------------------------------------------------------|
|-------------------------------------------------------------| cont.
|----------9---------12---------------------------12----------|
|----10------10---------10----9-10---------10--------10-------|
|-8------8------8----------8--------10/12------12-------12----|
|-------------------------------------------------------------|

|---------------------------|
|---------------------------| x3
|-----------10-9------------|
|-----9----------10---------|
|-10-----10-----------------|
|---------------------------|

Chorus/Both guitars:

|-------------------------------------------------------------|
|-------------------------------------------------------------| cont.
|----12-------12-------12-------12-------12-------------------|
|-------10-------10-------10-------10-------10----------------|
|-12-------12-------12-------12-------12-------12-------------|
|-------------------------------------------------------------|

|-------------------------------------------------------------|
|-------------------------------------------------------------| 6x
|----12-------12-------12-------12-------12-------------------|
|-------10-------10-------10-------10-------10----------------|
|-14-------14-------14-------14-------14-------14-------------|
|-------------------------------------------------------------|

1st guitar:

|----------------------------------|
|----------------------------------|
|----------------------------------|
|-----10----10~~-------------------|
|-/12----12------------------------|
|----------------------------------|

Outro/2nd guitar:

|-------------------------------------------------------------|
|-------------------------------------------------------------| cont.
|----------9---------12---------------------------12----------|
|----10------10---------10----9-10---------10--------10-------|
|-8------8------8----------8--------10/12------12-------12----|
|-------------------------------------------------------------|

|---------------------------|
|---------------------------| x4
|-----------10-9------------|
|-----9----------10---------|
|-10-----10-----------------|
|---------------------------|

2nd guitar:

|---------------------------------|
|---------------------------------|
|-12~~----------------------------|
|-10~~----------------------------|
|-12~~----------------------------|
|---------------------------------|
Добавлено: 04.09.2013
Другие материалы по этой песне:

Страница создана 30.06.2013
http://primanota.ru/being-as-an-ocean/dear-g-d-chords.htm
Привет, Гость.
Предлагаем пройти революционный курс по гитаре.
Подарок от PrimaNota.Ru, забирай!