PrimaNota.ru - самый крупный в мире бесплатный архив песенных текстов, аккордов, табулатур и нот


Behold The Arctopus - Estrogenpathogen Exchange Program - таба, видео

Регистрация Запомнить меня
Войти через:  Facebook Google Twitter Vk Yandex Mail.ru

Behold The Arctopus - Estrogenpathogen Exchange Program - таба, видео

Печатать
Просмотров: 108
Band:  (Behold… The Arctopus)
Album: (Nano-Nucleonic Cyborg Summoning)
Song:  (Estrogen/Pathogen Exchange Program)

Copyright (c)  (RECORD LABEL) (YEAR)
Version 1.0 - (DATE)

Transcribed By: (whitewalls1222)
Email:          (YOUR EMAIL)


.  - palm mute           /  - slide up to
\  - slide down to       ~  - vibrato
h  - hammer on           b  - Bend
p  - pull off            Suffixes for bend
t  - tap                 f  - full bend    h - half bend
ph - pinched harmonic    q  - quarter bend t - tap bend
*  - see comment         ^  - Hold bend    r release bend
x  - Stuccatto           ~  - vibrato bend
,  - slight palm mute    () - ghost note, sustained note
"  - tremolo note        <> - Trill

Tuning E A D G B E

Guitar tab
1:31
|-------------------------------------------------------------------|
|-------------------------------------------------------------------|
|------------------------------------------7------------------------|
|----------------------------------5----0--0-------------4----------|
|---3--------2--4--3--5-5--2--4-------------------------------------|
|------2--4-------------3--------4---6-------------------2----------|
2:51
|-----------------------------------------55------------------------|
|-------------------------------------------------------------------|
|-----------------------33-------------66---------------------------|
|--------------------------55-66-33-44------------------------------|
|---------3-------22-55---------------------------------------------|
|-----------0-0-----------------------------------------------------|
2:55
|------------------------------------------7------------------------|
|---------------------------------------44--------------------------|
|---------------------------------22-33-----------------------------|
|---6--------------------------22-----------------------------------|
|---2---8-8-8-8-8---------------------------------------------------|
|-------0-0-0-0-0----2-2-2-2----------------------------------------|

3:00
|-------------------------------------------------------------------|
|--------------------------151515151515151515151515151515151515-----|
|--------------------------181818181818181818181818181818181818-----|
|-------------------------------------------------------------------|
|-00000000000000-0000000000-----------------------------------------|
|-------------------------------------------------------------------|
3:03
|-------------------------------------------------------------------|
|-------------------------------------------------------------------|
|-------------------------------------------------------------------|
|----------------------------3---------------------44---------------|
|----------------------------1---5---5-----5----55---44----3-3-3----|
|--00000000000000000000000-------3---3-----3---------------0-0-0----|
3:13
|-------------------------------------------------------------------|
|-------------------------------------------------------------------|
|------------------------------------4------------------------------|
|--7-----------6-5---6-5---6-5----3---------------------------------|
|-------1-1--------------------6-----2------------------------------|
|----5-------3-----3-----3--------1---------------------------------|
                                                                                           Sl.   Sl.
3:19
|-------------------------------------------------------------------|
|-------------------------------------------------------------------|
|------------------------3-6---5---5--------------------------------|
|-1------4-------2-2---------6--------------------------------------|
|---0--2--------------5-5--------3---3---3-3--3---------------------|
|----------3-0-0----------------------------------------------------|
3:27
|-------------------------------------------------------------------|
|-------------------------------------------------------------------|
|---------------111111111111-444444-6666666666-7777-----------------|
|--444444444444-------------------------------------55555555555555--|
|-------------------------------------------------------------------|
|-------------------------------------------------------------------|

|--------------------3333-------------------------------------------|
|-------------------------------------------------------------------|
|--444444-666666--11------333333333333-777777777777777777777777-----|
|-------------------------------------------------------------------|
|--------------------------------------555555555555555555555555-----|
|-------------------------------------------------------------------|

|--------------------4----------------------------------------------|
|-------------------------------------------------------------------|
|--------------------2----------------------------------------------|
|--444444444444------6-----11----11--11---11---11-----11----11-11---|
|--------------------0-----8-----8---8----8----8------8-----8--8----|
|--222222222222------------0-----0---0----0----0------0-----0--0----|

|-------------------------------------------------------------------|
|-------------------------------------------------------------------|
|-------------------------------------------------------------------|
|--11-11---11---11-11-11------11-11---11-11---11-11-11--------------|
|--8--8----8----8--8--8-------8--8----8--8----8--8--8---------------|
|--0--0----0----0--0--0-------0--0----0--0----0--0--0---------------|




|-------------------------------------------------------------------|
|-------------------------------------------------------------------|
|--------------------------------------------------------1-0--------|
|--11---11-11---11-11-11---11-11-11-11--------2------4-3-------0---2|
|--8----8--8----8--8--8----8--8--8--8----2-------------------1---2--|
|--0----0--0----0--0--0----0--0--0--0------1----6-4----------------0|


|----9---10-------------7-------------------------------------------|
|--6---7------------------------------------------------------------|
|-----------0---3-----5--------------5------2-1-4--3----------------|
|--------------------------------------4-2---------------3-0-5-hold-|
|------------------0-----------5----------------------4-------------|
|--------------------------0------4---------------------------------|
Добавлено: 18.03.2012
Другие материалы по этой песне:

Страница создана 18.03.2012
http://primanota.ru/behold-the-arctopus/estrogenpathogen-exchange-program-chords.htm
Привет, Гость.
Предлагаем пройти революционный курс по гитаре.
Подарок от PrimaNota.Ru, забирай!