PrimaNota.ru - самый крупный в мире бесплатный архив песенных текстов, аккордов, табулатур и нот


Behind Crimson Eyes - This Is The End - текст песни, таба, видео

Регистрация Запомнить меня
Войти через:  Facebook Google Twitter Vk Yandex Mail.ru

Behind Crimson Eyes - This Is The End - текст песни, таба, видео

Печатать
Просмотров: 155
Song: This is the End
Artist: Behind Crimson Eyes
Album: Demo's (2004)
Tuning: Drop D (DADGBe)
Tabbed by: the mcr freak
KEY:
~ let ring
* palm mute
/ slide to
p pull off
h hammer on
b bend to
r release to
% pinch harmonic
v vibrato

Work out timing and strumming

==================================================================

GUITAR ONE: RHYTHM - BRYCE HAYSOM

Intro:
e-------------|
B-------------|
G-------------|
D-------------|
A-00000-33333-|
D-00000-33333-|

Verse:
e----------|
B----------|
G----------|
D-77---55--|
A-55---33--|
D----------|
  **   **

Pre-chorus:
e----------------------------|
B----------------------------|
G----------------------------|
D-55555-33333----------------|
A-33333-11111-33333-22222-0~-|
D-------------33333-22222-0~-|

Chorus:
e-------------|
B-------------|
G-------------|
D-------------|
A-00000-33333-|
D-00000-33333-|

[Nothing in verse2]

Pre-chorus:
e-xxxxxxx----------------------------|
B-xxxxxxx----------------------------|
G-xxxxxxx----------------------------|
D-xxxxxxx-55555-33333----------------|
A-xxxxxxx-33333-11111-33333-22222-0~-|
D-xxxxxxx-------------33333-22222-0~-|

[Repeat chorus]

Bridge:
e------------|--------------|
B------------|--------------|
G------------|--------------|
D------------|--------------|
A-00-00-/5-3-|-/5-3-/5-3-0~-|
D-00-00-/5-3-|-/5-3-/5-3-0~-|

[Repeat chorus]

Coda:
e----------------|
B----------------|
G----------------|
D----------------|
A-8-10-0-/5-3-0~-|
D-8-10-0-/5-3-0~-|

==================================================================

GUITAR TWO: LEAD - AARON SHULTZ

Intro:
e----88-----88--------8-|
B-/6----5h6-----6-5h6---|
G-----------------------|
D-----------------------|
A-----------------------|
D-----------------------|

Verse:
e-----------------|
B-----------6h8p6-|
G-77-55--5h7------|
D-----------------|
A-----------------|
D-----------------|
  ** **

Pre-chorus:(Hard to hear so it's not accurate)
e--------------------------|
B--------------------------|
G---------------------5h6--|
D----7-----5----7----------|
A-55----5----5------5------|
D--------------------------|
  **    *    *      *

Chorus:
e----88-----88--------8-|
B-/6----5h6-----6-5h6---|
G-----------------------|
D-----------------------|
A-----------------------|
D-----------------------|

[Nothing during verse]

[Repeat pre-chorus]
e---------|
B---------|
G-7~------|
D-----5%v-|
A---------|
D---------|

[Repeat chorus]

Bridge
e-----------------|------------|----------|--------------|
B-----------------|------------|-66-55----|--------------|
G-5-6-----/5-6----|------------|-------55-|--------------|
D------7~------5~-|------------|----------|--------------|
A-----------------|-00-00-/5-3-|----------|-/5-3-/5-3-0~-|
D-----------------|-00-00-/5-3-|----------|-/5-3-/5-3-0~-|
                                 ** ** **

[Repeat chorus]

Coda:
e-----88-----88--------8-|------------------|
B--/6----5h6-----6-5h6---|------------------|
G------------------------|-5-6------/5-6----|
D------------------------|------7~-------5~-|
A------------------------|------------------|
D------------------------|------------------|
Добавлено: 24.02.2012
Другие материалы по этой песне:
  • Аккорды и текст

Страница создана 24.02.2012
http://primanota.ru/behind-crimson-eyes/this-is-the-end-chords.htm
Привет, Гость.
Предлагаем пройти революционный курс по гитаре.
Подарок от PrimaNota.Ru, забирай!