PrimaNota.ru - самый крупный в мире бесплатный архив песенных текстов, аккордов, табулатур и нот


Behind Crimson Eyes - The Bonesmen - таба, видео

Регистрация Запомнить меня
Войти через:  Facebook Google Twitter Vk Yandex Mail.ru

Behind Crimson Eyes - The Bonesmen - таба, видео

Печатать
Просмотров: 110
The Bonesmen
Behind Crimson Eyes
A Revelation For Despair

Tabbed By mobius90

Intro  0:11 – 0:34
D|-----------------------------------------------------------|
A|-----------------------------------------------------------|
F|-----------------------------------------------------------|
C|-2-0-2-0-5-4-0-2---0-2-0-5-4-0-2---------------------------| X 8
G|-2-0-2-0-5-4-0-2---0-2-0-5-4-0-2---------------------------|
C|-2-0-2-0-5-4-0-2---0-2-0-5-4-0-2---------------------------|
Be tight on rhythm


Repeat Intro with solo part 1 over top


Solo part 1    0:23 – 0:34
Lead guitar 
D|-----------------------------------------------------------|
A|--555555--3-5555555--8----------------5555555--------------|
F|-------------------------9ph*-----9ph*---------------------|
C|-----------------------------------------------------------| 
G|-----------------------------------------------------------|
C|-----------------------------------------------------------|
Rhythm isn't specified, work it out for yourself


Rhythm guitar finishes on this
0:34
D|-----------------------------------------------------------|
A|-----------------------------------------------------------|
F|-----------------------------------------------------------|
C|-3--3--2---------------------------------------------------| 
G|-3--3--2---------------------------------------------------|
C|-3--3--2---------------------------------------------------|


Lead guitar in verse (clean) 0:38 – 0:55
D|------------------------------------------------------------|
A|-5-5-5-5-5-5-5-3-3-5-5-5-5-5-5-5-3-8-8-8-7-7-3-3-5-5-5-5-5-5|
F|------------------------------------------------------------|
C|------------------------------------------------------------| 
G|------------------------------------------------------------|
C|------------------------------------------------------------|
All palm muted

Verse guitar is played 
with distortion but still palm muted 0:55 – 1:00

verse guitar without palm muting 1:00 – 1:06





Pre-Chorus 1
Both guitars
1:06 – 1:12
D|--------------------------------------------------------------|
A|--------------------------------------------------------------|
F|--------------------------------------------------------------|
C|--------------------------------------------------------------| 
G|-5-7------5-7------5-7-5-7-5-7----5-7-----5-7---5-7-5-7-------|
C|-----2---------2---------------2--------2------2--------------|


Chorus
Both guitars
1:12 – 1:35
D|-----------------------------------------------------------|
A|-----------------------------------------------------------|
F|-9--7--5---------------------------------------------------|
C|-9--7--5---5-----------------------------------------------| 
G|-7—-5--3---5-----------------------------------------------|
C|-----------5-----------------------------------------------|


Pre-chorus 2
Both guitars
1:36 – 1:48
D|-----------------------------------------------------------|
A|-----------------------------------------------------------|
F|-----------------------------------------------------------|
C|-----------------------------------------------------------| 
G|-5-7----5-7-----5-5-5--5-7-----5-7----5-5------------------|
C|-----2-------2--------------2------2-----------------------|

Pre chorus 3
Both guitars
1:49 – 2:00
D|-----------------------------------------------------------|
A|----------------------12--12-------------------------------|
F|----------------------9---9--------------------------------|
C|----------------------9---9--------------------------------| 
G|-5-7--5-7--5-7--5-7-----------5-7--5-7--5-7--5-7-----------|
C|--------------------------------------------------22222----|


Interlude
2:00 – 2:03
D|-----------------------------------------------------------|
A|-----------------------------------------------------------|
F|-----------------------------------------------------------|
C|-------------------7h9-7h9-7h9-7h9-------------------------| 
G|-5h7-5h7-5h7-5h7-------------------------------------------|
C|-----------------------------------------------------------|


Chorus











Bridge Part 1
Both guitars
2:27 – 2:38
D|-----------------------------------------------------------|
A|-----------------------------------------------------------|
F|-----------------------------------------------------------|
C|-2-----------------------------2---------------------------| 
G|-2-----------------------------2---------------------------|
C|-2-----------------------------2---------------------------|
Let ring


Bridge Part 2
2:38 – 2:49
D|-0-5-7-0-5-7-0-5-7-0-5-7-5-7-5-7--0-5-7-0-5-7-0-5-7-0-5-7-5-7-5-7--|
A|-------------------------------------------------------------------|
F|-------------------------------------------------------------------|
C|-------------------------------------------------------------------| 
G|-------------------------------------------------------------------|
C|-------------------------------------------------------------------|
Palm muted  X2

Unmuted Bridge Part 3
2:50 – 3:01
D|-0-5-7-0-5-7-0-5-7-0-5-7-5-7-10-7--0-5-7-0-5-7-0-5-7-0-5-7-5-7-12-7|
A|-------------------------------------------------------------------|
F|-------------------------------------------------------------------|
C|-------------------------------------------------------------------| 
G|-------------------------------------------------------------------|
C|-------------------------------------------------------------------|

Unmuted Bridge Part 3 (cont.)
D|-0-5-7-0-5-7-0-5-7-0-5-7-5-7-10-7--0-5-7-0-5-7-0-5-7-0-5-7-5-7-10-7|
A|-------------------------------------------------------------------|
F|-------------------------------------------------------------------|
C|-------------------------------------------------------------------| 
G|-------------------------------------------------------------------|
C|-------------------------------------------------------------------|

For Bridge Part 3, second guitar can play an octave lower

Bass Solo

Outro Part 1
3:07 – 3:19

D|-------------------------------------------------------------------|
A|-------------------------------------------------------------------|
F|-------------------------------------------------------------------|
C|-0---2-0-2/5-4--0-2-4-5-4-0----------------------------------------| 
G|-0---2-0-2/5-4--0-2-4-5-4-0----------------------------------------|
C|-0---2-0-2/5-4--0-2-4-5-4-0----------------------------------------|






Outro Part 2
3:19 – end
D|-------------------------------------------------------------------|
A|-------------------------------------------------------------------|
F|-------------------------------------------------------------------|
C|-2-0-2-0-5-4-0-2---0-2-4-5-4-0-0-2---------------------------------| 
G|-2-0-2-0-5-4-0-2---0-2-4-5-4-0-0-2---------------------------------|
C|-2-0-2-0-5-4-0-2---0-2-4-5-4-0-0-2---------------------------------|


Wicked song, any issues with the tab, email me at mobius90@hotmail.com
Добавлено: 12.05.2012
Другие материалы по этой песне:

Страница создана 31.03.2012
http://primanota.ru/behind-crimson-eyes/the-bonesmen-chords.htm
Привет, Гость.
Предлагаем пройти революционный курс по гитаре.
Подарок от PrimaNota.Ru, забирай!