PrimaNota.ru - самый крупный в мире бесплатный архив песенных текстов, аккордов, табулатур и нот


Behind Crimson Eyes - Sorry Dosent Cut It - таба, видео

Регистрация Запомнить меня
Войти через:  Facebook Google Twitter Vk Yandex Mail.ru

Behind Crimson Eyes - Sorry Dosent Cut It - таба, видео

Печатать
Просмотров: 109
Hey! This is my fifth B.C.E tab, and this one will be better than some others i have
because im getting the hang of it now. But i am only 11! The tuning in the real song is
standard, but its easier to play this way and it sounds the same.
But anyways this song is of their 2004 demo and its graet. Pretty easy to play too.
P.S: any comments and stuff please send to: escape_artists_never_die17@hotmail.com
Can you also please rate the tab!
But without further ado here it is.


               BEHIND CRIMSON EYES - SORRY DOSEN'T CUT IT
   ---------------------------------------------------------------------------------------|

Intro (x8) and verse 1 ("i'll bite my tounge..."): Guitar 1 only
d-------5---------5---|
a---2-----2---2-----2-|
f-4---4-----0---0-----|
c---------------------|
g---------------------|
a---------------------|

Chorus 1 (x2) ("If you apoligize..."): Guitar 1
d----------------------------------|
a----------------------------------|
f----------------------------------|
c-5-x8-5--9-x6--5-x6--2-x16--5-x16-|
g-5----5--9-----5-----2------5-----|
a-5----5--9-----5-----2------5-----|
  .                   .      .

Chorus 1 (x2): Guitar 2 (comes in when gtr 1 plays its part for the 2nd time.)
d-------------|
a-------------|
f-7-9-14-9-11-|
c-x-x-x--x-x--|
g-5-7-12-7-9--|
a-------------|

Pre verse: Guitar 1:
d-----|
a-----|
f-----|
c-9-9-|
g-9-9-|
a-9-9-|

Pre verse: Guitar 2
d---------------|
a-2-2h3p2-2-3-2-|
f---------------|
c---------------|
g---------------|
a---------------|

Verse 2 ("you tried to undermine..."): (x4) Guitar 1 (when it finishes just start again).
d-------------------------------|
a-------------------------------|
f-------------------------------|
c-9--x16-5-x15-7--9-x16-5-x12-7-|
g-9------5-----7--9-----5-----7-|
a-9------5-----7--9-----5-----7-|

Verse 2 (x4): Guitar 2
d-------------------------|
a-2-2h3p2-2-3-2-3-2-5-3-2-|
f-------------------------|
c-------------------------|
g-------------------------|
a-------------------------|

Pre chorus both guitars (I'll set myself up to take the fall..."):
d-------------------------------|
a-------------------------------|
f-------------------------------|
c-9--x10--5--x10--9--x10--5-5-5-|
g-9-------5-------9-------5-5-5-|
a-9-------5-------9-------5-5-5-|

Then chorus is the same but not palm muted.
Then bridge Guitar 1: ("Can you hear my heart beat...") (x4):
d--------------|
a--------------|
f--------------|
c-9--x5--5--x5-|
g-9------5-----|
a--------------|

Bridge gtr 2:
d-11-10-------11-10------|
a-------11---------11----|
f---------------------10-|
c------------------------|
g------------------------|
a------------------------|

Little bridge thing before chorus gtr 1 ("Show me where it hurts most..."):
d------------------------------------|
a------------------------------------|
f------------------------------------|
c-9------5------9------5------7------|
g-9------5------9------5------7------|
a-9-x16--5-x16--9-x16--5-x16--7--x13-|

Little bridge thing before chorus gtr 2:
d-11-10---------|
a-------11---x9-|
f---------------|
c---------------|
g---------------|
a---------------|

Then chorus twice.
Outro: both guitars ("stop wasting time, ill be around...")
d---------------------------------------------------------|
a---------------------------------------------------------|
f---------------------------------------------------------|
c-9--x10---5--x10--9--x10--5--x10--9--x10--5--x10--7--x10-|
g-9--------5-------9-------5-------9-------5-------7------|
a-9--------5-------9-------5-------9-------5-------7------|

End note: (let ring)
d--------|
a--------|
f--------|
c-12~~~--|
g-12~~~--|
a-12~~~--|

And thats it!
Great song great Ep as all of theirs are. Good luck!
Добавлено: 21.05.2012
Другие материалы по этой песне:
  • Аккорды и текст

Страница создана 21.05.2012
http://primanota.ru/behind-crimson-eyes/sorry-dosent-cut-it-chords.htm
Привет, Гость.
Предлагаем пройти революционный курс по гитаре.
Подарок от PrimaNota.Ru, забирай!