PrimaNota.ru - самый крупный в мире бесплатный архив песенных текстов, аккордов, табулатур и нот


Behind Crimson Eyes - Sometimes Forever Means Never - текст песни, таба, видео

Регистрация Запомнить меня
Войти через:  Facebook Google Twitter Vk Yandex Mail.ru

Behind Crimson Eyes - Sometimes Forever Means Never - текст песни, таба, видео

Печатать
Просмотров: 171
Guitar 1
|--------------15-15-15-15-15--------------|
|------------------------------------------|
|------------------------------------------|
|--2~~---2~~-------------------------------|
|--2~~---3~~-------------------------------|
|--0~~---0~~-------------------------------|
guitar 1 x2
|----0-0-12-0-0-10-0-15-0-12-10  -0-0-12-0-0-10-15151717-|
|------------------------------  ------------------------|
|------------------------------  ------------------------|
|------------------------------x3 -----------------------|
|------------------------------  ------------------------|
|------------------------------  ------------------------|
Guitar 2 x2
|---------------------------|
|---------------------------|
|-------------5-7-----------|
|-2—-5—-7—-2—-5-7-----------|
|-2—-5—-7—-2—-3-5-----------|
|-0—-3—-5—-0----------------|

i will have the whole tab up soon
Добавлено: 08.04.2012
Другие материалы по этой песне:
  • Аккорды и текст

Страница создана 08.04.2012
http://primanota.ru/behind-crimson-eyes/sometimes-forever-means-never-chords.htm
Привет, Гость.
Предлагаем пройти революционный курс по гитаре.
Подарок от PrimaNota.Ru, забирай!