PrimaNota.ru - самый крупный в мире бесплатный архив песенных текстов, аккордов, табулатур и нот


Behind Crimson Eyes - Shakedown - текст песни, таба, бас-таба, видео

Регистрация Запомнить меня
Войти через:  Facebook Google Twitter Vk Yandex Mail.ru

Behind Crimson Eyes - Shakedown - текст песни, таба, бас-таба, видео

Печатать
Просмотров: 154
Title: Shakedown
Artist: Behind Crimson Eyes
Album: A Revelation For Despair


~ = Vibrato
/ = Slide Up
\ = Slide Down
. = Palm Mute
b = Bend String
r = Release Bend
h = Hammer on
p = Pull Off
t = Trill
T = Finger Tap

Tuning: Drop C Tunning (C G C F A D)


INTRO 

Guitar 1
D|-------------------------------|         |----------------|
A|-------------------------------|   x3    |----------------|
F|-10-8------------10~-----------|         |-10-8-----------|
C|------10/12--12------12-10-12--|         |------10/12--12-|
G|-------------------------------|         |----------------|
C|-------------------------------|         |----------------|
                                                                     x2
Guitar 2
D|----------------------------|   x3    |------------------------|
A|----------------------------|         |------------------------|
F|------7-7-7--------7--7-7---|         |------7-7-7-------------|
C|--7~--7-7-7----7~--7--7-7---|         |--7~--7-7-7-------------|
G|------5-5-5--5-----5--5-5---|         |------5-5-5-------11----|
c|----------------------------|         |--------------1111--000-|


VERSE        

Guitar 1 & 2
D|--------------------------------------------|
A|--------------------------8-----------------|
F|-7-7-7-7-7-7-7-7-77-7-7-7-7-7-7-7-----------|
C|-7-7-7-7-7-7-7-7-77-7-7-7-7-7-7-7-----------|
G|-5-5-5-5-5-5-5-5-55-5-5-5-5-5-5-5-----11----| 
c|----------------------------------0000--000-|

D|--------------------------------------------|          
A|-------8------------------8-----------------|        
F|-7-7-7-7-7-7-7-7-77-7-7-7-7-7-7-7-----------|         
C|-7-7-7-7-7-7-7-7-77-7-7-7-7-7-7-7-----------|         
G|-5-5-5-5-5-5-5-5-55-5-5-5-5-5-5-5-----11----|         
C|----------------------------------0000--000-|           


CHORUS

Guitar 1
D|------------------------------------------|          
A|------------------------------------------|   x3     
F|---------------------------------------10-|         
C|-12-12-10-12~--12-10-12~--12-12-10-12-----|         
G|------------------------------------------|         
c|------------------------------------------|
                                                      x2
D|------------------10-12-13-12-10-------------10-|          
A|------------10-12----------------12-13-12-10----|        
F|------10-12-------------------------------------|         
C|10-12-------------------------------------------|         
G|------------------------------------------------|         
c|------------------------------------------------|


Guitar 2
D|-----------------------------------------|          
A|-----------------------------------------|        
F|-7-7-7-7-7-7-7-7-10-10-10-10-10-10-10-10-|         
C|-7-7-7-7-7-7-7-7-10-10-10-10-10-10-10-10-|         
G|-5-5-5-5-5-5-5-5-8--8--8--8--8--8--8--8--|         
C|-----------------------------------------| 
                                                x2
D|-----------------------------------------|          
A|-----------------------------------------|        
F|-12-12-12-12-12-12-12-12---------3-3-3-3-|         
C|-12-12-12-12-12-12-12-12-0-0-0-0-3-3-3-3-|         
G|-10-10-10-10-10-10-10-10-0-0-0-0-1-1-1-1-|         
C|-------------------------0-0-0-0---------| 


Interlude (Part 1)

Guitar 1
D|-----------------------------------------------|          
A|--15~----15b(17)-(17)r(15)-13--13\10~-|        
F|-----------------------------------------------|         
C|-----------------------------------------------|         
G|-----------------------------------------------|         
c|-----------------------------------------------|

   . . .    . . .    . . .    . . .
D|-------0--------0--------0--------0--1h0-------|          
A|---1--------2--------0--------1----------------|        
F|-2---2----2---2----1---1----2---1--------------|         
C|-----------------------------------------------|         
G|-----------------------------------------------|         
c|-----------------------------------------------|
   . . .    . . .    . . .    . . .

          .        .       .        .
D|-1h0------1h0------1h0-----1h0------1h0-------------|          
A|--------5--------5-------5--------5-----------------|        
F|----------------------------------------------------|         
C|----------------------------------------------------|         
G|----------------------------------------------------|         
c|-----------------------------------------|
          .        .       .        .


Interlude (Part 2 - Solo)

Guitar 1
D|------------------14--------------------------------------|          
A|---------6t(8)----------------------9-8b(9)r(8)-8p6-------|        
F|-9b(10)-----------------------10-12-----------------------|         
C|-9b(10)-----------------10-12-----------------------------|         
G|-7b(8-)---------------------------------------------------|         
c|----------------------------------------------------------|

D|---------8-10--11~------------14-16----14-16-17b(18)r(17)-|          
A|-9-11-12------------15-17-18--------18--------------------|        
F|----------------------------------------------------------|         
C|----------------------------------------------------------|         
G|----------------------------------------------------------|         
c|----------------------------------------------------------|

D|-17p15----------------------------------------------------|          
A|-------15-------------------------------------------------|        
F|----------------------------------------------------------|         
C|-----------10b(12)----T19p12-12h14-15p12------------------|         
G|-----------------------------------------14p12b(14)r(10)--|         
c|----------------------------------------------------------|

D|------------------------------20-22b(24)------------------|          
A|-------------10-12-13-14-15~------------------------------|        
F|-------10-12----------------------------------------------|         
C|-10-12----------------------------------------------------|         
G|----------------------------------------------------------|         
c|----------------------------------------------------------|

Guitar 2
D|---------------------------------------------------|          
A|-----------------------------------------------22~-|        
F|-10-10-10-10----7-7-7-7----9-9-9-9----6-6-6-6------|         
C|-x--x--x--x-----x-x-x-x----x-x-x-x----x-x-x-x------|         
G|-8--8--8--8-----5-5-5-5----7-7-7-7----4-4-4-4------|         
c|---------------------------------------------------|

D|-------------------------------------------------------------|
A|-------------------------------------------------------------|
F|-10-10-10-10--10--10--10-7-7-7-7--7--7--7-9-9-9-9--9--9--9-6-|
C|-x--x--x--x---x---x---x--x-x-x-x--x--x--x-x-x-x-x--x--x--x-x-|
G|-8--8--8--8---8---8---8--5-5-5-5--5--5--5-7-7-7-7--7--7--7-4-|
c|-------------------------------------------------------------|


--REPEAT CHORUS--


BRIDGE (Part 1)

Guitar 1
D|-13-12-10-12-10---------13-12-10-12-10-8/10---|          
A|----------------10/11~------------------------|        
F|----------------------------------------------|         
C|----------------------------------------------|         
G|----------------------------------------------|         
c|----------------------------------------------|

D|-13-12-10-12-10---------------------------------------|          
A|----------------10/11~--16-15-16-18-16-15-16-15-16/18-|        
F|------------------------------------------------------|         
C|------------------------------------------------------|         
G|------------------------------------------------------|         
c|------------------------------------------------------|

D|-------------------|          
A|-16-15-16-15-16-15-|        
F|-------------------|         
C|-------------------|         
G|-------------------|         
c|-------------------|

Guitar 2
D|-------------------------------------|          
A|-4-----------------------------------|    x2    
F|----0--3--0-1-0----------------------|         
C|-------------------2-----------------|         
G|----------------------3--5-----------|         
c|---------------------------5b(6)r(5)-|


BRIDGE (Part 2)

Guitar 1 & 2
D|-------------------|          |-------------------|         
A|-------------------|    x3    |-------------------| 
F|-7\5-5-7-----------|          |-7\5-5-7-----------|
C|-7\5-5-7--0-0-00-0-|          |-7\5-5-7--0-0------|
G|-5\3-3-5--0-0-00-0-|          |-5\3-3-5--0-0------|
c|----------0-0-00-0-|          |----------0-0------|


--REPEAT INTRO + CHORUS--


End On
D|-------------------|          
A|-------------------|        
F|-------------------|         
C|-0-----------------|         
G|-0-----------------|         
c|-0-----------------|
Добавлено: 10.05.2012
Другие материалы по этой песне:
  • Аккорды и текст

Страница создана 10.05.2012
http://primanota.ru/behind-crimson-eyes/shakedown-chords.htm
Привет, Гость.
Предлагаем пройти революционный курс по гитаре.
Подарок от PrimaNota.Ru, забирай!