PrimaNota.ru - самый крупный в мире бесплатный архив песенных текстов, аккордов, табулатур и нот


Behind Crimson Eyes - Nightmare On Apparition Part 6 - текст песни, таба, видео

Регистрация Запомнить меня
Войти через:  Facebook Google Twitter Vk Yandex Mail.ru

Behind Crimson Eyes - Nightmare On Apparition Part 6 - текст песни, таба, видео

Печатать
Просмотров: 112
ok. well. people seem to think this song is played in freaky tunings.
i figured it out in drop d... meh. anyway the intro bit i have isn't 
quite right but it works ok. other than that its all pretty good. 
partitioned into riffs not bars

Oh and this is my first tab for 2 guitars so it could be a little 
dodgy lookin. but im doing my best :P

2 guitars
guitar 1: Drop D (DADGBe)
guitar 2: Drop D (DADGBe)

Intro
|---------------------------------------------|
|---------------------------------------------|
|---------------------------------------------|
|--5----------------------------------3-------|
|--5-5---5---6-8-6-5h6p5----5-5h6p5-----------|
|--5---5---5-------------1----------3---3-4---| 
|                                             |
|---------------------------------------------|
|---------------------------------------------|
|---------------------------------------------|
|--5-5----------------------------------------|
|--5-5----------------------------------------|
|--5-5----------------------------------------| x2
 (Nightmare..)

|---------------------------------------------|
|---------------------------------------------|
|---------------------------------------------|
|--5----------------------------------3-------|
|--5-5---5---6-8-6-5h6p5----5-5h6p5-----------|
|--5---5---5-------------1----------3---3-4---| 
|                                             |
|---------------------------------------------|
|---------------------------------------------|
|---------------------------------------------|
|--5-5-------------------1-1--------3-3-------|
|--5-5-------------------1-1--------3-3-------|
|--5-5-------------------1-1--------3-3-------| x2 (second time a couple more 
  (head...)                                         "3"'s in guitar 2 part)


Verse
|--3---5---6---5h6p5-1-------6---1------------|
|----3---3---3---------4-3-4---3---3----------|
|---------------------------------------------|
|---------------------------------------------|
|---------------------------------------------|
|---------------------------------------------|
|                                             |
|---------------------------------------------|
|---------------------------------------------|
|---------------------------------------------|
|--5-----------------1-------3----------------|
|--5-----------------1-------3----------------|
|--5-----------------1-------3----------------| x3
  (just strap this..)

|--3---5---6---5h6p5-1-------6----------------|
|----3---3---3---------4-3-4---4-3~-----------|
|---------------------------------------------|
|---------------------------------------------|
|---------------------------------------------|
|---------------------------------------------|
|                                             |
|---------------------------------------------|
|---------------------------------------------|
|---------------------------------------------|
|--5-----------------1-------3----------------|
|--5-----------------1-------3----------------|
|--5-----------------1-------3----------------|x1
  (ill fight with..)

Chorus
|-6-----|     |-6-----|     |-6-----|     |-6-----|     |-6-----|
|---3-4-|     |---3-4-|     |---3-4-|     |---3-4-|     |---3-4-|
|-------|     |-------|     |-------|     |-------|     |-------|
|-------|     |-------|     |-------|     |-------|     |-------|
|-------|     |-------|     |-------|     |-------|     |-------|
|-------|     |-------|     |-------|     |-------|     |-------|
|-------|     |-------|     |-------|     |-------|     |-------|
|       |     |       |     |       |     |       |     |       |
|-------|     |-------|     |-------|     |-------|     |-------|
|-------|     |-------|     |-------|     |-------|     |-------|
|-------|     |-------|     |-------|     |-------|     |-------|
|-1-----|     |-5-----|     |-1-----|     |-5-----|     |-3-----|
|-1-----|     |-5-----|     |-1-----|     |-5-----|     |-3-----|
|-1-----|x4   |-5-----|x4   |-1-----|x4   |-5-----|x2   |-3-----|x2     

Little Bit after the Chorus
|--6-5-------------6-5-----------|
|------6--4-3----------6--4-3----|
|-------------3---------------3--|
|--------------------------------|
|--------------------------------|
|--------------------------------|
|                                |
|--------------------------------|
|--------------------------------|
|--------------------------------|
|--1-----------------------------|
|--1-----------------------------|
|--1-----------------------------|  

Verse2
|--6-5-----------|    |--6-5-----------6-5-----------|
|------6--4-3----|    |------6--4-3--------6--4-3----|
|-------------3--|    |-------------3-------------3--|
|----------------|    |------------------------------|
|----------------|    |------------------------------|
|----------------|    |------------------------------|
|                |    |                              |
|----------------|    |------------------------------|
|----------------|    |------------------------------|
|----------------|    |------------------------------|
|--5-------------|    |--1-------------1--------3----|
|--5-------------|    |--1-------------1--------3----|
|--5-------------|x2  |--1-------------1--------3----|
 (its just a...)

|--6-5-----------|    |--6-5-----------6-5-----------|
|------6--4-3----|    |------6--4-3--------6--4-3----|
|-------------3--|    |-------------3----------------|
|----------------|    |------------------------------|
|----------------|    |------------------------------|
|----------------|    |------------------------------|
|                |    |                              |
|----------------|    |------------------------------|
|----------------|    |------------------------------|
|----------------|    |------------------------------|
|--5-------------|    |--1-------------1--------3----|
|--5-------------|    |--1-------------1--------3----|
|--5-------------|x2  |--1-------------1--------3----|
  (just like..)

Chorus
|-6-----|     |-6-----|     |-6-----|     |-6-----|     |-6-----|
|---3-4-|     |---3-4-|     |---3-4-|     |---3-4-|     |---3-4-|
|-------|     |-------|     |-------|     |-------|     |-------|
|-------|     |-------|     |-------|     |-------|     |-------|
|-------|     |-------|     |-------|     |-------|     |-------|
|-------|     |-------|     |-------|     |-------|     |-------|
|-------|     |-------|     |-------|     |-------|     |-------|
|       |     |       |     |       |     |       |     |       |
|-------|     |-------|     |-------|     |-------|     |-------|
|-------|     |-------|     |-------|     |-------|     |-------|
|-------|     |-------|     |-------|     |-------|     |-------|
|-1-----|     |-5-----|     |-1-----|     |-5-----|     |-3-----|
|-1-----|     |-5-----|     |-1-----|     |-5-----|     |-3-----|
|-1-----|x4   |-5-----|x4   |-1-----|x4   |-5-----|x2   |-3-----|x2 

Solo
|--------------------------------------------13---------|
|--6~---4-4~-3---10-10b11-10b11r10--10-10-11----10-11---|
|-------------------------------------------------------|
|-------------------------------------------------------|
|-------------------------------------------------------|
|-------------------------------------------------------|
|                                                       |
|-------------------------------------------------------|
|-------------------------------------------------------|
|-------------------------------------------------------|
|-1-----3-3--5------------------------------------------|
|-1-----3-3--5-------------------------------8----------|
|-1-----3-3--5----------------------7--7--8-----7--8----|

|--13-13-15-13~----6-5-6-5h6p5-3------------------------|
|-----------------------------------6-6-6--4-4-4--3-----|
|-------------------------------------------------------|
|-------------------------------------------------------|
|-------------------------------------------------------|
|-------------------------------------------------------|
|                                                       |
|-------------------------------------------------------|
|-------------------------------------------------------|
|-------------------------------------------------------|
|-------------------------------------------------------|
|-------------------------------------------------------|
|--------------------10--------12---10------------------|


Breakdown/bridgey bit
|-----------------------------------------------------------|
|-----------------------------------------------------------|
|---------:O theres nothing here..... :O!!!!!---------------|
|-------------------------LOL-------------------------------|
|-----------------------------------------------------------|
|-----------------------------------------------------------|
|                                                           |
|-----------------------------------------------------------|
|-----------------------------------------------------------|
|-----------------------------------------------------------|
|--1-1-1-1----1-1-1-3-3-3-5-5-5-5----5-5-5-3-3-3-1-1-1-1----|
|--1-1-1-1----1-1-1-3-3-3-5-5-5-5----5-5-5-3-3-3-1-1-1-1----|
|--1-1-1-1----1-1-1-3-3-3-5-5-5-5----5-5-5-3-3-3-1-1-1-1----|x2
  (wake up...)

|--------------------------------------------------|     
|--------------------------------------------------|     
|--------------------------------------------------|     
|---------3-3-3-------------------3-3-3------------|     
|--------------------------------------------------|     
|--------------------------------------------------|      
|                                                  |     
|--------------------------------------------------|     
|--------------------------------------------------|     
|--------------------------------------------------|     
|--1-1-1-1-----1-1-1-3-3-3-5-5-5-5-----5-5-5-3-3-3-|     
|--1-1-1-1-----1-1-1-3-3-3-5-5-5-5-----5-5-5-3-3-3-|     
|--1-1-1-1-----1-1-1-3-3-3-5-5-5-5-----5-5-5-3-3-3-|x1   


|------|   }
|------|   }
|------|   }
|--1---|   }
|--1---|   }
|--1---|   } Quiet.
|      |   } Possibly only one guitar
|------|   } fade out quickly
|------|   } atmospheric stuffs.
|------|   }
|--1---|   }
|--1---|   }
|--1---|x1 }

outro + shiz'

|-------------------------|
|-------------------------|
|-------------------------|
|--5----------------------|
|--5-5---5---6-8-6-5h6p5--|
|--5---5---5--------------|
|                         |
|-------------------------|
|-------------------------|
|-------------------------|
|--5-5--------------------|  (second time no second guitar.        
|--5-5--------------------|   third and fourth 2 second guitar
|--5-5--------------------|x4 let 5 ring out for duration)


|---------------------------------------------|
|---------------------------------------------|
|---------------------------------------------|
|--5----------------------------------3-------|
|--5-5---5---6-8-6-5h6p5----5-5h6p5-----------|
|--5---5---5-------------1----------3---3-4---| 
|                                             |
|---------------------------------------------|
|---------------------------------------------|
|---------------------------------------------|
|--5-5-------------------1-1--------3-3-------|
|--5-5-------------------1-1--------3-3-------|
|--5-5-------------------1-1--------3-3-------|x4

|---------------------------------------------|
|---------------------------------------------|
|---------------------------------------------|
|--5-5---5---5---5-5-5---5-5------------------|
|--5-5---5---5---5-5-5---5-5------------------|
|--5-5---5---5---5-5-5---5-5------------------|
|
|---------------------------------------------|
|---------------------------------------------|
|---------------------------------------------|
|--5-5---5---5---5-5-5---5-5------------------|
|--5-5---5---5---5-5-5---5-5------------------|
|--5-5---5---5---5-5-5---5-5------------------|

I didn't write many of the strumming patterns for the seconds guitar coz 
you guys can work them out yourselves. have fun (Y)

-Chizbro-
Добавлено: 26.07.2012
Другие материалы по этой песне:
  • Аккорды и текст

Страница создана 16.07.2012
http://primanota.ru/behind-crimson-eyes/nightmare-on-apparition-part-6-chords.htm
Привет, Гость.
Предлагаем пройти революционный курс по гитаре.
Подарок от PrimaNota.Ru, забирай!