PrimaNota.ru - самый крупный в мире бесплатный архив песенных текстов, аккордов, табулатур и нот


Behind Crimson Eyes - Game Of Life - текст песни, таба, видео

Регистрация Запомнить меня
Войти через:  Facebook Google Twitter Vk Yandex Mail.ru

Behind Crimson Eyes - Game Of Life - текст песни, таба, видео

Печатать
Просмотров: 149
   -----------------------------------------------------------------------
                      BEHIND CRIMSON EYES - GAME OF LIFE
   -----------------------------------------------------------------------


Heyloo! This is my third behind crimson eyes tab ive submitted, (their might be some 
soon!) and it sounds good to me. Its a bit hard to play but just practise and you can get 
right. Have fun!
------------|
GUITAR 1    |
------------|

Intro:
D-------------------------------|
A-------------------------------|
F-----10-------10-8-7H8P7-x2----|
C---8----8---8------------------|
G-8--------8--------------------|
A-------------------------------|

Bit before verse:
D----------------------------------------------|
A----------------------------------------------|
F--17-16-17-16-17-16---17-16-17-19-17-19-17-x2-|
C--X--X--X--X--X--X----X--X--X--X--X--X--X-----|
G--15-14-15-14-15-14---15-14-15-17-15-17-15----|
A----------------------------------------------|

Verse:("And i can feel you breathing down my neck...")
D-4-0-4-0-4------4-0-4-0-4------X2-|
A-----------5-4-5----------5-4-5---|
F----------------------------------|
C----------------------------------|
G----------------------------------|
A----------------------------------|

Pre chorus: ("Ain't it funny how life's brutally honest with you...")
D---------------|
A---------------|
F-7-X8--9-X5----|
C-X-----X-------|
G-5-----7-------|
A---------------|

Chorus: ("You're not so pretty now..."). (After Guitar 2 plays its part once Guitar 1 
this. This chorus arrangement happens four times.)
D--------------|
A--------------|
F-12-11-X4-----|
C-X--X---------|
G-10-9---------|
A--------------|
Bit before verse:
D-13P10P9-9H10H13-X3-|
A--------------------|
F--------------------|
C--------------------|
G--------------------|
A--------------------|

Then play:
Verse
Pre-chorus
Chorus (This time play intro in the chorus).
Then this: ("And now that these bridges are burnt...")
D---------------------------------|
A---------------------------------|
F-3P2P1--------3P2P1--------------|
C--------3P2P1-------3P2P1--X4----|
G---------------------------------|
A---------------------------------|

Pre-chorus
Chorus
Then play intro once.

Thats Guitar 1 done, now for Guitar 2:
Intro:
D-----------------------------------------------------------|
A-----------------------------------------------------------|
F-6------------6--------------------------------------------|
C-4------------4------------4-4-4-4-4-4-4-4-4-4-4-4-4-4-4-4-|
G-4------------4------------4-4-4-4-4-4-4-4-4-4-4-4-4-4-4-4-|
A-4-(Let ring)-4-(Let ring)-4-4-4-4-4-4-4-4-4-4-4-4-4-4-4-4-|

Bit before verse: (X2)
D-------------|
A-------------|
F-------------|
C-4----6------|
G-4----6------|
A-4-X9-6-X10--|

Verse: ("And i can feel you breathing down my neck...")
D-------------------|
A-------------------|
F-5-----7-----------|
C-3-----5-----0-----|
G-3-X9--5-X9--0--X9-|
A-3-----5-----0-----|

Pre-chorus:
D-------------|
A-------------|
F-5-----7-----|
C-3-----5-----|
G-3-----5-----|
A-3-X10-5-X8--|

Chorus: X4 ("You're not so pretty now...")
D----------------------------|
A----------------------------|
F----------------------------|
C-11-X8--7-X4--9-X4----------|
G-11-----7-----9-------------|
A-11-----7-----9-------------|

Guitar 2 is silent when Guitar 1 plays the bit before the verse.
Then
Verse
pre-chorus
chorus
Bridge:
D------------------------------------------------|
A------------------------------------------------|
F------------------------------------------------|
C-0-0-0-0-----0-0-0-0--------0-0-0-0----0-0-0-0--|
G-0-0-0-0-----0-0-0-0--------0-0-0-0----0-0-0-0--|
A-0-0-0-0-----0-0-0-0--------0-0-0-0----0-0-0-0--|
  . . . .     . . . .        . . . .    . . . .

Then:
Pre-chorus
chorus


AND WE'RE FINALLY FINISHED!
Geez, tabbings hard work!
Good luck!
Добавлено: 13.03.2012
Другие материалы по этой песне:
  • Аккорды и текст

Страница создана 13.03.2012
http://primanota.ru/behind-crimson-eyes/game-of-life-chords.htm
Привет, Гость.
Предлагаем пройти революционный курс по гитаре.
Подарок от PrimaNota.Ru, забирай!